0
SECTION
2
HEADER
9
$INSUNITS
70
4
9
$ACADVER
1
AC1014
9
$HANDSEED
5
FFFF
0
ENDSEC
0
SECTION
2
TABLES
0
TABLE
2
VPORT
5
8
100
AcDbSymbolTable
0
ENDTAB
0
TABLE
2
LTYPE
5
5
100
AcDbSymbolTable
0
LTYPE
5
14
100
AcDbSymbolTableRecord
100
AcDbLinetypeTableRecord
2
BYBLOCK
70
0
0
LTYPE
5
15
100
AcDbSymbolTableRecord
100
AcDbLinetypeTableRecord
2
BYLAYER
70
0
0
ENDTAB
0
TABLE
2
LAYER
5
2
100
AcDbSymbolTable
70
2
0
LAYER
5
50
100
AcDbSymbolTableRecord
100
AcDbLayerTableRecord
2
0
70
0
6
CONTINUOUS
0
ENDTAB
0
TABLE
2
STYLE
5
3
100
AcDbSymbolTable
70
1
0
STYLE
5
11
100
AcDbSymbolTableRecord
100
AcDbTextStyleTableRecord
2
STANDARD
70
0
0
ENDTAB
0
TABLE
2
VIEW
5
6
100
AcDbSymbolTable
70
0
0
ENDTAB
0
TABLE
2
UCS
5
7
100
AcDbSymbolTable
70
0
0
ENDTAB
0
TABLE
2
APPID
5
9
100
AcDbSymbolTable
70
2
0
APPID
5
12
100
AcDbSymbolTableRecord
100
AcDbRegAppTableRecord
2
ACAD
70
0
0
ENDTAB
0
TABLE
2
DIMSTYLE
5
A
100
AcDbSymbolTable
70
1
0
ENDTAB
0
TABLE
2
BLOCK_RECORD
5
1
100
AcDbSymbolTable
70
1
0
BLOCK_RECORD
5
1F
100
AcDbSymbolTableRecord
100
AcDbBlockTableRecord
2
*MODEL_SPACE
0
BLOCK_RECORD
5
1B
100
AcDbSymbolTableRecord
100
AcDbBlockTableRecord
2
*PAPER_SPACE
0
ENDTAB
0
ENDSEC
0
SECTION
2
BLOCKS
0
BLOCK
5
20
100
AcDbEntity
100
AcDbBlockBegin
2
*MODEL_SPACE
0
ENDBLK
5
21
100
AcDbEntity
100
AcDbBlockEnd
0
BLOCK
5
1C
100
AcDbEntity
100
AcDbBlockBegin
2
*PAPER_SPACE
0
ENDBLK
5
1D
100
AcDbEntity
100
AcDbBlockEnd
0
ENDSEC
0
SECTION
2
ENTITIES
0
ARC
5
100
100
AcDbEntity
8
0
100
AcDbCircle
10
3.0000000000000004
20
39.800000000000004
30
0
40
2.9999999999999982
100
AcDbArc
50
90.000000000000043
51
180
0
LINE
5
101
100
AcDbEntity
8
0
100
AcDbLine
10
12.000000000000002
20
44
30
0
11
-1.1102230246251565e-15
21
44
31
0
0
ARC
5
102
100
AcDbEntity
8
0
100
AcDbCircle
10
84.76220572366887
20
51.728342625535511
30
0
40
0.59999999999996168
100
AcDbArc
50
10.000000000000307
51
190.00000000000006
0
ARC
5
103
100
AcDbEntity
8
0
100
AcDbCircle
10
3.0000000000000004
20
3.0000000000000004
30
0
40
3.0000000000000004
100
AcDbArc
50
180
51
270
0
ARC
5
104
100
AcDbEntity
8
0
100
AcDbCircle
10
73.239955013426027
20
49.696658946832429
30
0
40
0.59999999999999665
100
AcDbArc
50
10.000000000000087
51
190.00000000000051
0
CIRCLE
5
105
100
AcDbEntity
8
0
100
AcDbCircle
10
61.5
20
16.800000000000001
30
0
40
1.375
0
CIRCLE
5
106
100
AcDbEntity
8
0
100
AcDbCircle
10
81.329769128308413
20
50.463084146476625
30
0
40
0.59999999999999987
0
ARC
5
107
100
AcDbEntity
8
0
100
AcDbCircle
10
62
20
17.300000000000001
30
0
40
2.9999999999999982
100
AcDbArc
50
0
51
90
0
CIRCLE
5
108
100
AcDbEntity
8
0
100
AcDbCircle
10
76.898134239753475
20
49.681667346975445
30
0
40
0.59999999999999987
0
LINE
5
109
100
AcDbEntity
8
0
100
AcDbLine
10
3.0000000000000004
20
0
30
0
11
62
21
0
31
0
0
ARC
5
110
100
AcDbEntity
8
0
100
AcDbCircle
10
62
20
25.5
30
0
40
2.9999999999999982
100
AcDbArc
50
-90
51
0
0
ARC
5
111
100
AcDbEntity
8
0
100
AcDbCircle
10
3.0000000000000004
20
25.5
30
0
40
3.0000000000000004
100
AcDbArc
50
180
51
270
0
ARC
5
112
100
AcDbEntity
8
0
100
AcDbCircle
10
3.0000000000000004
20
17.300000000000001
30
0
40
3.0000000000000004
100
AcDbArc
50
90.000000000000043
51
180
0
ARC
5
113
100
AcDbEntity
8
0
100
AcDbCircle
10
62
20
39.800000000000004
30
0
40
2.9999999999999982
100
AcDbArc
50
0
51
90
0
LINE
5
114
100
AcDbEntity
8
0
100
AcDbLine
10
55.399999999999999
20
100
30
0
11
40
21
100
31
0
0
LWPOLYLINE
5
115
100
AcDbEntity
8
0
100
AcDbPolyline
90
4
70
1
43
0.0
10
34.150000000000006
20
62.034999999999997
42
-0.99999999999999989
10
32.950000000000003
20
62.034999999999997
10
32.95000000000001
20
63.335000000000001
42
-0.99999999999999989
10
34.149999999999999
20
63.335000000000001
0
CIRCLE
5
116
100
AcDbEntity
8
0
100
AcDbCircle
10
25.449999999999999
20
62.685000000000002
30
0
40
0.59999999999999998
0
LWPOLYLINE
5
117
100
AcDbEntity
8
0
100
AcDbPolyline
90
4
70
1
43
0.0
10
41.25
20
63.335000000000001
10
41.25
20
62.034999999999997
42
0.99999999999999989
10
42.450000000000003
20
62.034999999999997
10
42.450000000000003
20
63.335000000000001
42
0.99999999999999989
0
LWPOLYLINE
5
118
100
AcDbEntity
8
0
100
AcDbPolyline
90
4
70
1
43
0.0
10
52.950000000000003
20
63.335000000000001
10
52.950000000000003
20
62.034999999999997
42
0.99999999999999989
10
54.149999999999999
20
62.034999999999997
10
54.149999999999999
20
63.335000000000001
42
0.99999999999999989
0
CIRCLE
5
119
100
AcDbEntity
8
0
100
AcDbCircle
10
5.4500000000000002
20
62.685000000000002
30
0
40
0.59999999999999998
0
CIRCLE
5
120
100
AcDbEntity
8
0
100
AcDbCircle
10
45.450000000000003
20
62.685000000000002
30
0
40
0.59999999999999998
0
LWPOLYLINE
5
121
100
AcDbEntity
8
0
100
AcDbPolyline
90
4
70
1
43
0.0
10
22.450000000000003
20
62.034999999999997
42
-0.99999999999999989
10
21.25
20
62.034999999999997
10
21.25
20
63.335000000000001
42
-0.99999999999999989
10
22.450000000000003
20
63.335000000000001
0
ARC
5
122
100
AcDbEntity
8
0
100
AcDbCircle
10
21.850000000000001
20
62.034999999999997
30
0
40
0.60000000000000053
100
AcDbArc
50
-180
51
0
0
LINE
5
123
100
AcDbEntity
8
0
100
AcDbLine
10
15.4
20
100
30
0
11
0
21
100
31
0
0
LINE
5
124
100
AcDbEntity
8
0
100
AcDbLine
10
35.399999999999999
20
100
30
0
11
20
21
100
31
0
0
LWPOLYLINE
5
125
100
AcDbEntity
8
0
100
AcDbPolyline
90
4
70
1
43
0.0
10
2.4500000000000002
20
62.034999999999997
10
2.4500000000000002
20
63.335000000000001
42
0.99999999999999989
10
1.25
20
63.335000000000001
10
1.25
20
62.034999999999997
42
0.99999999999999989
0
LWPOLYLINE
5
126
100
AcDbEntity
8
0
100
AcDbPolyline
90
4
70
1
43
0.0
10
12.950000000000001
20
63.335000000000001
10
12.949999999999999
20
62.034999999999997
42
0.99999999999999989
10
14.150000000000002
20
62.034999999999997
10
14.150000000000002
20
63.335000000000001
42
0.99999999999999989
0
LINE
5
127
100
AcDbEntity
8
0
100
AcDbLine
10
14.150000000000002
20
63.335000000000001
30
0
11
14.150000000000002
21
62.034999999999997
31
0
0
ARC
5
128
100
AcDbEntity
8
0
100
AcDbCircle
10
41.850000000000009
20
62.034999999999997
30
0
40
0.60000000000000497
100
AcDbArc
50
-180
51
0
0
ARC
5
129
100
AcDbEntity
8
0
100
AcDbCircle
10
13.550000000000002
20
62.034999999999997
30
0
40
0.60000000000000275
100
AcDbArc
50
-180
51
0
0
ARC
5
130
100
AcDbEntity
8
0
100
AcDbCircle
10
33.550000000000004
20
62.034999999999997
30
0
40
0.60000000000000497
100
AcDbArc
50
-180
51
0
0
LINE
5
131
100
AcDbEntity
8
0
100
AcDbLine
10
41.25
20
62.034999999999997
30
0
11
41.25
21
63.335000000000001
31
0
0
ARC
5
132
100
AcDbEntity
8
0
100
AcDbCircle
10
84.987948354635876
20
50.448092546619641
30
0
40
0.5999999999999982
100
AcDbArc
50
-169.99999999999923
51
10.000000000000965
0
CIRCLE
5
133
100
AcDbEntity
8
0
100
AcDbCircle
10
3.5000000000000004
20
16.800000000000001
30
0
40
1.375
0
CIRCLE
5
134
100
AcDbEntity
8
0
100
AcDbCircle
10
61.5
20
39.300000000000004
30
0
40
1.375
0
LINE
5
135
100
AcDbEntity
8
0
100
AcDbLine
10
1.25
20
62.034999999999997
30
0
11
1.25
21
63.335000000000001
31
0
0
ARC
5
136
100
AcDbEntity
8
0
100
AcDbCircle
10
62
20
3.0000000000000004
30
0
40
3.0000000000000004
100
AcDbArc
50
-90
51
0
0
LINE
5
137
100
AcDbEntity
8
0
100
AcDbLine
10
2.4500000000000002
20
63.335000000000001
30
0
11
2.4500000000000002
21
62.034999999999997
31
0
0
LINE
5
138
100
AcDbEntity
8
0
100
AcDbLine
10
-1.1102230246251565e-15
20
44
30
0
11
0
21
57
31
0
0
CIRCLE
5
139
100
AcDbEntity
8
0
100
AcDbCircle
10
3.5000000000000004
20
39.300000000000004
30
0
40
1.375
0
LINE
5
140
100
AcDbEntity
8
0
100
AcDbLine
10
34.149999999999999
20
63.335000000000001
30
0
11
34.149999999999999
21
62.034999999999997
31
0
0
LINE
5
141
100
AcDbEntity
8
0
100
AcDbLine
10
12.949999999999999
20
62.034999999999997
30
0
11
12.950000000000001
21
63.335000000000001
31
0
0
LINE
5
142
100
AcDbEntity
8
0
100
AcDbLine
10
21.25
20
62.034999999999997
30
0
11
21.25
21
63.335000000000001
31
0
0
LINE
5
143
100
AcDbEntity
8
0
100
AcDbLine
10
32.950000000000003
20
62.034999999999997
30
0
11
32.950000000000003
21
63.335000000000001
31
0
0
LINE
5
144
100
AcDbEntity
8
0
100
AcDbLine
10
22.450000000000003
20
63.335000000000001
30
0
11
22.450000000000003
21
62.034999999999997
31
0
0
LINE
5
145
100
AcDbEntity
8
0
100
AcDbLine
10
52.950000000000003
20
62.034999999999997
30
0
11
52.950000000000003
21
63.335000000000001
31
0
0
LINE
5
146
100
AcDbEntity
8
0
100
AcDbLine
10
42.450000000000003
20
63.335000000000001
30
0
11
42.450000000000003
21
62.034999999999997
31
0
0
LINE
5
147
100
AcDbEntity
8
0
100
AcDbLine
10
54.149999999999999
20
63.335000000000001
30
0
11
54.149999999999999
21
62.034999999999997
31
0
0
ARC
5
148
100
AcDbEntity
8
0
100
AcDbCircle
10
13.550000000000002
20
63.335000000000001
30
0
40
0.60000000000000053
100
AcDbArc
50
0
51
180
0
LINE
5
149
100
AcDbEntity
8
0
100
AcDbLine
10
82.220000000000027
20
100
30
0
11
100.00000000000003
21
100
31
0
0
ARC
5
150
100
AcDbEntity
8
0
100
AcDbCircle
10
21.850000000000001
20
63.335000000000001
30
0
40
0.60000000000000053
100
AcDbArc
50
0
51
180
0
ARC
5
151
100
AcDbEntity
8
0
100
AcDbCircle
10
53.550000000000004
20
63.335000000000001
30
0
40
0.59999999999999609
100
AcDbArc
50
0
51
180
0
CIRCLE
5
152
100
AcDbEntity
8
0
100
AcDbCircle
10
9.9499999999999993
20
62.685000000000002
30
0
40
0.59999999999999998
0
LINE
5
153
100
AcDbEntity
8
0
100
AcDbLine
10
100.00000000000003
20
100
30
0
11
100.00000000000001
21
59.359999999999999
31
0
0
ARC
5
154
100
AcDbEntity
8
0
100
AcDbCircle
10
41.850000000000009
20
63.335000000000001
30
0
40
0.59999999999999609
100
AcDbArc
50
0
51
180
0
CIRCLE
5
155
100
AcDbEntity
8
0
100
AcDbCircle
10
49.950000000000003
20
62.685000000000002
30
0
40
0.59999999999999998
0
ARC
5
156
100
AcDbEntity
8
0
100
AcDbCircle
10
33.550000000000004
20
63.335000000000001
30
0
40
0.59999999999999609
100
AcDbArc
50
0
51
180
0
ARC
5
157
100
AcDbEntity
8
0
100
AcDbCircle
10
53.550000000000004
20
62.034999999999997
30
0
40
0.60000000000000497
100
AcDbArc
50
-180
51
0
0
LINE
5
158
100
AcDbEntity
8
0
100
AcDbLine
10
0
20
100
30
0
11
0
21
60
31
0
0
LINE
5
159
100
AcDbEntity
8
0
100
AcDbLine
10
100.00000000000001
20
59.359999999999999
30
0
11
82.220000000000013
21
59.359999999999999
31
0
0
LINE
5
160
100
AcDbEntity
8
0
100
AcDbLine
10
60.220000000000027
20
100
30
0
11
78.000000000000028
21
100
31
0
0
CIRCLE
5
161
100
AcDbEntity
8
0
100
AcDbCircle
10
29.950000000000003
20
62.685000000000002
30
0
40
0.59999999999999998
0
ARC
5
162
100
AcDbEntity
8
0
100
AcDbCircle
10
1.8500000000000003
20
63.335000000000001
30
0
40
0.59999999999999998
100
AcDbArc
50
0
51
180
0
LINE
5
163
100
AcDbEntity
8
0
100
AcDbLine
10
0
20
3.0000000000000009
30
0
11
0
21
17.300000000000001
31
0
0
LINE
5
164
100
AcDbEntity
8
0
100
AcDbLine
10
65
20
25.5
30
0
11
65
21
39.800000000000004
31
0
0
LINE
5
165
100
AcDbEntity
8
0
100
AcDbLine
10
99.700236457444689
20
12.792785845173839
30
0
11
92.21599999999998
21
55.238000000000014
31
0
0
LINE
5
166
100
AcDbEntity
8
0
100
AcDbLine
10
72.874812992585703
20
48.312219961316394
30
0
11
72.649070361618698
21
49.592470040232264
31
0
0
LINE
5
167
100
AcDbEntity
8
0
100
AcDbLine
10
0
20
25.500000000000004
30
0
11
0
21
39.800000000000004
31
0
0
LINE
5
168
100
AcDbEntity
8
0
100
AcDbLine
10
85.353090375476171
20
51.832531532135668
30
0
11
85.578833006443176
21
50.552281453219805
31
0
0
LINE
5
169
100
AcDbEntity
8
0
100
AcDbLine
10
73.830839665233341
20
49.800847853432586
30
0
11
74.056582296200347
21
48.520597774516723
31
0
0
LINE
5
170
100
AcDbEntity
8
0
100
AcDbLine
10
84.397063702828561
20
50.343903640019477
30
0
11
84.171321071861513
21
51.624153718935347
31
0
0
LINE
5
171
100
AcDbEntity
8
0
100
AcDbLine
10
92.21599999999998
20
55.238000000000014
30
0
11
65.035306016863061
21
50.445310296392726
31
0
0
LINE
5
172
100
AcDbEntity
8
0
100
AcDbLine
10
65.035306016863061
20
50.445310296392726
30
0
11
72.519542474307769
21
8.0000961415665657
31
0
0
ARC
5
173
100
AcDbEntity
8
0
100
AcDbCircle
10
73.465697644393032
20
48.416408867916559
30
0
40
0.5999999999999982
100
AcDbArc
50
-169.99999999999946
51
10.000000000000746
0
LINE
5
174
100
AcDbEntity
8
0
100
AcDbLine
10
78.000000000000014
20
59.359999999999999
30
0
11
60.220000000000013
21
59.359999999999999
31
0
0
ARC
5
175
100
AcDbEntity
8
0
100
AcDbCircle
10
1.8500000000000003
20
62.034999999999997
30
0
40
0.60000000000000031
100
AcDbArc
50
-180
51
0
0
LINE
5
176
100
AcDbEntity
8
0
100
AcDbLine
10
66.5
20
5.0002504107472134
30
0
11
66.5
21
5.0002504107472134
31
0
0
LINE
5
177
100
AcDbEntity
8
0
100
AcDbLine
10
68
20
3.5002504107472134
30
0
11
68
21
4.3709567898628133e-16
31
0
0
LINE
5
178
100
AcDbEntity
8
0
100
AcDbLine
10
68
20
4.3709567898628133e-16
30
0
11
100.00000000000001
21
-1.3549966048574753e-14
31
0
0
LINE
5
179
100
AcDbEntity
8
0
100
AcDbLine
10
66.868642843789601
20
15.000250410747213
30
0
11
66.5
21
15.000250410747213
31
0
0
LINE
5
180
100
AcDbEntity
8
0
100
AcDbLine
10
81.450804623240941
20
8.0255717417460044
30
0
11
81.446322967315581
21
8.0509884755172365
31
0
0
LINE
5
181
100
AcDbEntity
8
0
100
AcDbLine
10
91.298882153363024
20
9.7620535184153105
30
0
11
91.294400497437664
21
9.7874702521865409
31
0
0
LINE
5
182
100
AcDbEntity
8
0
100
AcDbLine
10
72.732501266263071
20
4.9651597160810024
30
0
11
80.234065260223005
21
6.2878878457272922
31
0
0
LINE
5
183
100
AcDbEntity
8
0
100
AcDbLine
10
70.46220136370448
20
6.3851777718192153
30
0
11
68.310895504208148
21
13.912448498461867
31
0
0
LINE
5
184
100
AcDbEntity
8
0
100
AcDbLine
10
93.036566049381747
20
8.5453141553973957
30
0
11
100.00000000000001
21
9.7731554392727311
31
0
0
LINE
5
185
100
AcDbEntity
8
0
100
AcDbLine
10
100.00000000000001
20
9.7731554392727311
30
0
11
100.00000000000001
21
-1.3549966048574753e-14
31
0
0
LINE
5
186
100
AcDbEntity
8
0
100
AcDbLine
10
72.519542474307769
20
8.0000961415665657
30
0
11
79.708639071296886
21
9.2677278385351443
31
0
0
LINE
5
187
100
AcDbEntity
8
0
100
AcDbLine
10
99.700236457444689
20
12.792785845173839
30
0
11
92.511139860455586
21
11.525154148205248
31
0
0
LINE
5
188
100
AcDbEntity
8
0
100
AcDbLine
10
65
20
17.300000000000001
30
0
11
65
21
16.500250410747213
31
0
0
LINE
5
189
100
AcDbEntity
8
0
100
AcDbLine
10
65
20
3.5002504107472134
30
0
11
65
21
3.0000000000000004
31
0
0
LINE
5
190
100
AcDbEntity
8
0
100
AcDbLine
10
22.5
20
21.300000000000004
30
0
11
22.5
21
21.5
31
0
0
LINE
5
191
100
AcDbEntity
8
0
100
AcDbLine
10
42.5
20
21.300000000000004
30
0
11
42.5
21
21.5
31
0
0
LINE
5
192
100
AcDbEntity
8
0
100
AcDbLine
10
2.9999999999999982
20
20.300000000000004
30
0
11
21.5
21
20.300000000000004
31
0
0
LINE
5
193
100
AcDbEntity
8
0
100
AcDbLine
10
43.5
20
20.300000000000008
30
0
11
62
21
20.300000000000004
31
0
0
LINE
5
194
100
AcDbEntity
8
0
100
AcDbLine
10
62
20
22.5
30
0
11
43.5
21
22.499999999999996
31
0
0
LINE
5
195
100
AcDbEntity
8
0
100
AcDbLine
10
21.5
20
22.5
30
0
11
3.0000000000000004
21
22.5
31
0
0
LINE
5
196
100
AcDbEntity
8
0
100
AcDbLine
10
60.220000000000013
20
49.094063415349972
30
0
11
60.220000000000013
21
52.020659651813112
31
0
0
LWPOLYLINE
5
197
100
AcDbEntity
8
0
100
AcDbPolyline
90
19
70
1
43
0.0
10
12.000000000000002
20
55.520659651813133
10
12.000000000000002
20
57
10
12.000000000000002
20
58.5
42
-0.4142135623730907
10
13.5
20
60
10
13.900000000000002
20
60
10
15.4
20
60
10
15.4
20
61.5
10
15.4
20
71.5
42
-0.41421356237308898
10
16.899999999999999
20
73
10
18.5
20
73
42
-0.41421356237308898
10
20
20
71.5
10
20
20
61.5
10
20
20
60
10
21.5
20
60
10
22.200000000000003
20
60
42
-0.4142135623730907
10
23.700000000000003
20
58.5
10
23.700000000000003
20
55.520659651813133
42
-0.4142135623730907
10
22.200000000000003
20
54.020659651813133
10
13.5
20
54.020659651813133
42
-0.4142135623730907
0
LINE
5
198
100
AcDbEntity
8
0
100
AcDbLine
10
12.000000000000002
20
47.094063415349972
30
0
11
12.000000000000002
21
44
31
0
0
LINE
5
199
100
AcDbEntity
8
0
100
AcDbLine
10
3.4000000000000004
20
58.5
30
0
11
3.4000000000000004
21
58.5
31
0
0
LINE
5
200
100
AcDbEntity
8
0
100
AcDbLine
10
0
20
57
30
0
11
1.9000000000000004
21
57
31
0
0
LINE
5
201
100
AcDbEntity
8
0
100
AcDbLine
10
0
20
60
30
0
11
1.9000000000000004
21
60
31
0
0
LWPOLYLINE
5
202
100
AcDbEntity
8
0
100
AcDbPolyline
90
18
70
1
43
0.0
10
31.699999999999999
20
55.520659651813126
10
31.699999999999999
20
58.5
42
-0.4142135623730907
10
33.199999999999996
20
60
10
33.899999999999999
20
60
10
35.399999999999999
20
60
10
35.399999999999999
20
61.5
10
35.399999999999999
20
71.5
42
-0.41421356237308898
10
36.899999999999999
20
73
10
38.5
20
73
42
-0.41421356237308898
10
40
20
71.5
10
40
20
61.5
10
40
20
60
10
41.5
20
60
10
42.199999999999989
20
60
42
-0.4142135623730881
10
43.699999999999989
20
58.5
10
43.699999999999989
20
55.520659651813126
42
-0.4142135623730881
10
42.199999999999989
20
54.020659651813119
10
33.199999999999996
20
54.020659651813119
42
-0.4142135623730907
0
LINE
5
203
100
AcDbEntity
8
0
100
AcDbLine
10
22.5
20
44.300000000000004
30
0
11
22.5
21
45.594063415349964
31
0
0
LINE
5
204
100
AcDbEntity
8
0
100
AcDbLine
10
42.5
20
44.300000000000004
30
0
11
42.5
21
45.594063415349964
31
0
0
LINE
5
205
100
AcDbEntity
8
0
100
AcDbLine
10
12.000000000000002
20
47.094063415349972
30
0
11
21
21
47.094063415349972
31
0
0
LINE
5
206
100
AcDbEntity
8
0
100
AcDbLine
10
44
20
47.094063415349972
30
0
11
58.220000000000013
21
47.094063415349964
31
0
0
LINE
5
207
100
AcDbEntity
8
0
100
AcDbLine
10
51.700000000000003
20
58.5
30
0
11
51.700000000000003
21
55.520659651813119
31
0
0
LINE
5
208
100
AcDbEntity
8
0
100
AcDbLine
10
53.200000000000003
20
60
30
0
11
55.399999999999999
21
60
31
0
0
LINE
5
209
100
AcDbEntity
8
0
100
AcDbLine
10
53.200000000000003
20
54.020659651813112
30
0
11
58.220000000000013
21
54.020659651813119
31
0
0
LINE
5
210
100
AcDbEntity
8
0
100
AcDbLine
10
2.9999999999999982
20
42.800000000000004
30
0
11
21
21
42.800000000000004
31
0
0
LINE
5
211
100
AcDbEntity
8
0
100
AcDbLine
10
44
20
42.800000000000004
30
0
11
62
21
42.800000000000004
31
0
0
LINE
5
212
100
AcDbEntity
8
0
100
AcDbLine
10
16.899999999999999
20
87
30
0
11
18.5
21
87
31
0
0
LINE
5
213
100
AcDbEntity
8
0
100
AcDbLine
10
36.899999999999999
20
87
30
0
11
38.5
21
87
31
0
0
LINE
5
214
100
AcDbEntity
8
0
100
AcDbLine
10
56.900000000000006
20
87
30
0
11
58.720000000000013
21
87
31
0
0
LINE
5
215
100
AcDbEntity
8
0
100
AcDbLine
10
79.500000000000028
20
87
30
0
11
80.720000000000027
21
87
31
0
0
LINE
5
216
100
AcDbEntity
8
0
100
AcDbLine
10
56.900000000000006
20
73
30
0
11
58.720000000000013
21
73
31
0
0
LINE
5
217
100
AcDbEntity
8
0
100
AcDbLine
10
79.500000000000028
20
73
30
0
11
80.720000000000013
21
73
31
0
0
LINE
5
218
100
AcDbEntity
8
0
100
AcDbLine
10
15.4
20
100
30
0
11
15.400000000000006
21
88.499999999999972
31
0
0
LINE
5
219
100
AcDbEntity
8
0
100
AcDbLine
10
19.999999999999996
20
88.499999999999972
30
0
11
20
21
100
31
0
0
LINE
5
220
100
AcDbEntity
8
0
100
AcDbLine
10
35.399999999999999
20
100
30
0
11
35.400000000000006
21
88.499999999999972
31
0
0
LINE
5
221
100
AcDbEntity
8
0
100
AcDbLine
10
39.999999999999993
20
88.499999999999972
30
0
11
40
21
100
31
0
0
LINE
5
222
100
AcDbEntity
8
0
100
AcDbLine
10
55.399999999999999
20
100
30
0
11
55.400000000000006
21
88.499999999999972
31
0
0
LINE
5
223
100
AcDbEntity
8
0
100
AcDbLine
10
55.399999999999999
20
71.5
30
0
11
55.399999999999999
21
60
31
0
0
LINE
5
224
100
AcDbEntity
8
0
100
AcDbLine
10
60.220000000000013
20
59.359999999999999
30
0
11
60.22000000000002
21
71.5
31
0
0
LINE
5
225
100
AcDbEntity
8
0
100
AcDbLine
10
60.220000000000013
20
88.499999999999972
30
0
11
60.220000000000027
21
100
31
0
0
LINE
5
226
100
AcDbEntity
8
0
100
AcDbLine
10
78.000000000000028
20
100
30
0
11
78.000000000000028
21
88.499999999999972
31
0
0
LINE
5
227
100
AcDbEntity
8
0
100
AcDbLine
10
78.000000000000028
20
71.5
30
0
11
78.000000000000014
21
59.359999999999999
31
0
0
LINE
5
228
100
AcDbEntity
8
0
100
AcDbLine
10
82.220000000000013
20
59.359999999999999
30
0
11
82.220000000000013
21
71.5
31
0
0
LINE
5
229
100
AcDbEntity
8
0
100
AcDbLine
10
82.220000000000027
20
88.5
30
0
11
82.220000000000027
21
100
31
0
0
ARC
5
230
100
AcDbEntity
8
0
100
AcDbCircle
10
16.900000000000009
20
88.5
30
0
40
1.5000000000000036
100
AcDbArc
50
180
51
269.9999999999996
0
ARC
5
231
100
AcDbEntity
8
0
100
AcDbCircle
10
18.499999999999993
20
88.5
30
0
40
1.5000000000000036
100
AcDbArc
50
270.00000000000023
51
360
0
ARC
5
232
100
AcDbEntity
8
0
100
AcDbCircle
10
1.8999999999999884
20
58.499999999999986
30
0
40
1.500000000000012
100
AcDbArc
50
0
51
89.999999999999545
0
ARC
5
233
100
AcDbEntity
8
0
100
AcDbCircle
10
1.8999999999999884
20
58.500000000000014
30
0
40
1.5000000000000124
100
AcDbArc
50
270.00000000000045
51
360
0
ARC
5
234
100
AcDbEntity
8
0
100
AcDbCircle
10
36.900000000000006
20
88.5
30
0
40
1.5000000000000036
100
AcDbArc
50
180
51
269.99999999999972
0
ARC
5
235
100
AcDbEntity
8
0
100
AcDbCircle
10
38.499999999999993
20
88.5
30
0
40
1.5000000000000036
100
AcDbArc
50
270.00000000000023
51
360
0
ARC
5
236
100
AcDbEntity
8
0
100
AcDbCircle
10
53.200000000000017
20
58.499999999999979
30
0
40
1.5000000000000213
100
AcDbArc
50
90.00000000000054
51
180
0
ARC
5
237
100
AcDbEntity
8
0
100
AcDbCircle
10
53.200000000000017
20
55.520659651813133
30
0
40
1.5000000000000213
100
AcDbArc
50
180
51
269.99999999999943
0
ARC
5
238
100
AcDbEntity
8
0
100
AcDbCircle
10
56.90000000000002
20
71.499999999999972
30
0
40
1.5000000000000213
100
AcDbArc
50
90.00000000000054
51
180
0
ARC
5
239
100
AcDbEntity
8
0
100
AcDbCircle
10
58.719999999999999
20
71.499999999999972
30
0
40
1.5000000000000213
100
AcDbArc
50
0
51
89.99999999999946
0
ARC
5
240
100
AcDbEntity
8
0
100
AcDbCircle
10
56.900000000000013
20
88.5
30
0
40
1.5000000000000036
100
AcDbArc
50
180
51
269.99999999999972
0
ARC
5
241
100
AcDbEntity
8
0
100
AcDbCircle
10
58.720000000000006
20
88.5
30
0
40
1.5000000000000036
100
AcDbArc
50
270.00000000000023
51
360
0
ARC
5
242
100
AcDbEntity
8
0
100
AcDbCircle
10
79.500000000000043
20
88.5
30
0
40
1.5000000000000036
100
AcDbArc
50
180
51
269.99999999999943
0
ARC
5
243
100
AcDbEntity
8
0
100
AcDbCircle
10
80.720000000000013
20
88.500000000000014
30
0
40
1.5000000000000213
100
AcDbArc
50
270.00000000000057
51
360
0
ARC
5
244
100
AcDbEntity
8
0
100
AcDbCircle
10
79.500000000000043
20
71.499999999999972
30
0
40
1.5000000000000213
100
AcDbArc
50
90.00000000000054
51
180
0
ARC
5
245
100
AcDbEntity
8
0
100
AcDbCircle
10
80.720000000000013
20
71.499999999999986
30
0
40
1.5000000000000036
100
AcDbArc
50
0
51
90
0
ARC
5
246
100
AcDbEntity
8
0
100
AcDbCircle
10
20.999999999999986
20
45.594063415349957
30
0
40
1.5000000000000124
100
AcDbArc
50
0
51
89.99999999999946
0
ARC
5
247
100
AcDbEntity
8
0
100
AcDbCircle
10
20.999999999999986
20
44.300000000000011
30
0
40
1.5000000000000124
100
AcDbArc
50
270.00000000000057
51
360
0
ARC
5
248
100
AcDbEntity
8
0
100
AcDbCircle
10
44.000000000000021
20
45.59406341534995
30
0
40
1.5000000000000213
100
AcDbArc
50
90.00000000000081
51
180
0
ARC
5
249
100
AcDbEntity
8
0
100
AcDbCircle
10
44.000000000000021
20
44.300000000000026
30
0
40
1.5000000000000213
100
AcDbArc
50
180
51
269.9999999999992
0
ARC
5
250
100
AcDbEntity
8
0
100
AcDbCircle
10
79.969111337797287
20
7.7905162090168512
30
0
40
1.4999999999999822
100
AcDbArc
50
9.9999999999997193
51
100.00000000000031
0
ARC
5
251
100
AcDbEntity
8
0
100
AcDbCircle
10
79.973592993722605
20
7.765099475245627
30
0
40
1.5000000000000249
100
AcDbArc
50
-79.999999999999957
51
9.9999999999991349
0
ARC
5
252
100
AcDbEntity
8
0
100
AcDbCircle
10
92.776093782881347
20
10.022525784915723
30
0
40
1.5000000000000133
100
AcDbArc
50
190.00000000000054
51
280.00000000000011
0
ARC
5
253
100
AcDbEntity
8
0
100
AcDbCircle
10
92.771612126955958
20
10.047942518686954
30
0
40
1.4999999999999782
100
AcDbArc
50
99.999999999999247
51
190.00000000000077
0
ARC
5
254
100
AcDbEntity
8
0
100
AcDbCircle
10
66.500000000000014
20
16.500250410747228
30
0
40
1.5000000000000124
100
AcDbArc
50
180
51
269.99999999999943
0
ARC
5
255
100
AcDbEntity
8
0
100
AcDbCircle
10
66.500000000000014
20
3.5002504107472014
30
0
40
1.500000000000012
100
AcDbArc
50
90.00000000000054
51
180
0
ARC
5
256
100
AcDbEntity
8
0
100
AcDbCircle
10
21.499999999999989
20
21.499999999999989
30
0
40
1.0000000000000098
100
AcDbArc
50
0
51
89.999999999999389
0
ARC
5
257
100
AcDbEntity
8
0
100
AcDbCircle
10
21.499999999999989
20
21.300000000000011
30
0
40
1.0000000000000098
100
AcDbArc
50
270.00000000000063
51
360
0
ARC
5
258
100
AcDbEntity
8
0
100
AcDbCircle
10
43.499999999999986
20
21.500000000000007
30
0
40
0.99999999999998757
100
AcDbArc
50
89.99999999999919
51
180
0
ARC
5
259
100
AcDbEntity
8
0
100
AcDbCircle
10
43.499999999999986
20
21.299999999999994
30
0
40
0.99999999999998757
100
AcDbArc
50
180
51
270.0000000000008
0
ARC
5
260
100
AcDbEntity
8
0
100
AcDbCircle
10
58.219999999999992
20
52.020659651813105
30
0
40
2.0000000000000195
100
AcDbArc
50
0
51
89.999999999999389
0
ARC
5
261
100
AcDbEntity
8
0
100
AcDbCircle
10
58.219999999999992
20
49.094063415349979
30
0
40
2.0000000000000195
100
AcDbArc
50
270.00000000000063
51
360
0
ARC
5
262
100
AcDbEntity
8
0
100
AcDbCircle
10
66.5
20
3.5002504107472014
30
0
40
1.5000000000000124
100
AcDbArc
50
0
51
90
0
ARC
5
263
100
AcDbEntity
8
0
100
AcDbCircle
10
72.385204910929218
20
6.9347752221054328
30
0
40
2.0000000000000111
100
AcDbArc
50
195.95001985850237
51
279.99999999999972
0
ARC
5
264
100
AcDbEntity
8
0
100
AcDbCircle
10
66.868642843789601
20
13.500250410747213
30
0
40
1.4999999999999989
100
AcDbArc
50
15.950019858502113
51
90
0
ENDSEC
0
SECTION
2
OBJECTS
0
DICTIONARY
5
C
100
AcDbDictionary
3
ACAD_GROUP
350
D
3
ACAD_MLINESTYLE
350
17
0
DICTIONARY
5
D
100
AcDbDictionary
0
DICTIONARY
5
1A
330
C
100
AcDbDictionary
0
DICTIONARY
5
17
100
AcDbDictionary
0
ENDSEC
0
EOF
