0
SECTION
2
HEADER
9
$INSUNITS
70
4
9
$ACADVER
1
AC1014
9
$HANDSEED
5
FFFF
0
ENDSEC
0
SECTION
2
TABLES
0
TABLE
2
VPORT
5
8
100
AcDbSymbolTable
0
ENDTAB
0
TABLE
2
LTYPE
5
5
100
AcDbSymbolTable
0
LTYPE
5
14
100
AcDbSymbolTableRecord
100
AcDbLinetypeTableRecord
2
BYBLOCK
70
0
0
LTYPE
5
15
100
AcDbSymbolTableRecord
100
AcDbLinetypeTableRecord
2
BYLAYER
70
0
0
ENDTAB
0
TABLE
2
LAYER
5
2
100
AcDbSymbolTable
70
2
0
LAYER
5
50
100
AcDbSymbolTableRecord
100
AcDbLayerTableRecord
2
0
70
0
6
CONTINUOUS
0
ENDTAB
0
TABLE
2
STYLE
5
3
100
AcDbSymbolTable
70
1
0
STYLE
5
11
100
AcDbSymbolTableRecord
100
AcDbTextStyleTableRecord
2
STANDARD
70
0
0
ENDTAB
0
TABLE
2
VIEW
5
6
100
AcDbSymbolTable
70
0
0
ENDTAB
0
TABLE
2
UCS
5
7
100
AcDbSymbolTable
70
0
0
ENDTAB
0
TABLE
2
APPID
5
9
100
AcDbSymbolTable
70
2
0
APPID
5
12
100
AcDbSymbolTableRecord
100
AcDbRegAppTableRecord
2
ACAD
70
0
0
ENDTAB
0
TABLE
2
DIMSTYLE
5
A
100
AcDbSymbolTable
70
1
0
ENDTAB
0
TABLE
2
BLOCK_RECORD
5
1
100
AcDbSymbolTable
70
1
0
BLOCK_RECORD
5
1F
100
AcDbSymbolTableRecord
100
AcDbBlockTableRecord
2
*MODEL_SPACE
0
BLOCK_RECORD
5
1B
100
AcDbSymbolTableRecord
100
AcDbBlockTableRecord
2
*PAPER_SPACE
0
ENDTAB
0
ENDSEC
0
SECTION
2
BLOCKS
0
BLOCK
5
20
100
AcDbEntity
100
AcDbBlockBegin
2
*MODEL_SPACE
0
ENDBLK
5
21
100
AcDbEntity
100
AcDbBlockEnd
0
BLOCK
5
1C
100
AcDbEntity
100
AcDbBlockBegin
2
*PAPER_SPACE
0
ENDBLK
5
1D
100
AcDbEntity
100
AcDbBlockEnd
0
ENDSEC
0
SECTION
2
ENTITIES
0
LINE
5
100
100
AcDbEntity
8
0
100
AcDbLine
10
21
20
43.050000000000004
30
0
11
44
21
43.050000000000004
31
0
0
LINE
5
101
100
AcDbEntity
8
0
100
AcDbLine
10
1.9000000000000004
20
57.250000000000007
30
0
11
12.000000000000002
21
57.250000000000007
31
0
0
LINE
5
102
100
AcDbEntity
8
0
100
AcDbLine
10
1.9000000000000004
20
59.75
30
0
11
13.5
21
59.75
31
0
0
LINE
5
103
100
AcDbEntity
8
0
100
AcDbLine
10
22.200000000000003
20
59.75
30
0
11
33.199999999999996
21
59.75
31
0
0
LINE
5
104
100
AcDbEntity
8
0
100
AcDbLine
10
41.5
20
59.75
30
0
11
53.200000000000003
21
59.75
31
0
0
LINE
5
105
100
AcDbEntity
8
0
100
AcDbLine
10
81.970000000000027
20
88.5
30
0
11
81.970000000000013
21
71.5
31
0
0
LINE
5
106
100
AcDbEntity
8
0
100
AcDbLine
10
78.250000000000043
20
88.499999999999972
30
0
11
78.250000000000028
21
71.5
31
0
0
LINE
5
107
100
AcDbEntity
8
0
100
AcDbLine
10
59.970000000000006
20
88.499999999999972
30
0
11
59.970000000000013
21
71.5
31
0
0
LINE
5
108
100
AcDbEntity
8
0
100
AcDbLine
10
55.650000000000013
20
88.499999999999972
30
0
11
55.650000000000006
21
71.5
31
0
0
LINE
5
109
100
AcDbEntity
8
0
100
AcDbLine
10
39.749999999999993
20
88.499999999999972
30
0
11
39.75
21
71.5
31
0
0
LINE
5
110
100
AcDbEntity
8
0
100
AcDbLine
10
35.650000000000006
20
88.499999999999972
30
0
11
35.650000000000006
21
71.5
31
0
0
LINE
5
111
100
AcDbEntity
8
0
100
AcDbLine
10
19.749999999999993
20
88.499999999999972
30
0
11
19.749999999999996
21
71.5
31
0
0
LINE
5
112
100
AcDbEntity
8
0
100
AcDbLine
10
15.650000000000009
20
88.499999999999972
30
0
11
15.650000000000004
21
71.5
31
0
0
LINE
5
113
100
AcDbEntity
8
0
100
AcDbLine
10
65.25
20
16.500250410747213
30
0
11
65.25
21
3.5002504107472134
31
0
0
LINE
5
114
100
AcDbEntity
8
0
100
AcDbLine
10
79.752051115713613
20
9.0215259002820929
30
0
11
92.554551904872312
21
11.278952209952195
31
0
0
LINE
5
115
100
AcDbEntity
8
0
100
AcDbLine
10
12.25
20
47.094063415349972
30
0
11
12.25
21
55.520659651813133
31
0
0
LINE
5
116
100
AcDbEntity
8
0
100
AcDbLine
10
21.5
20
22.25
30
0
11
43.5
21
22.249999999999996
31
0
0
LINE
5
117
100
AcDbEntity
8
0
100
AcDbLine
10
21.5
20
20.550000000000001
30
0
11
43.5
21
20.550000000000004
31
0
0
ENDSEC
0
SECTION
2
OBJECTS
0
DICTIONARY
5
C
100
AcDbDictionary
3
ACAD_GROUP
350
D
3
ACAD_MLINESTYLE
350
17
0
DICTIONARY
5
D
100
AcDbDictionary
0
DICTIONARY
5
1A
330
C
100
AcDbDictionary
0
DICTIONARY
5
17
100
AcDbDictionary
0
ENDSEC
0
EOF
