0
SECTION
2
HEADER
9
$INSUNITS
70
4
9
$ACADVER
1
AC1014
9
$HANDSEED
5
FFFF
0
ENDSEC
0
SECTION
2
TABLES
0
TABLE
2
VPORT
5
8
100
AcDbSymbolTable
0
ENDTAB
0
TABLE
2
LTYPE
5
5
100
AcDbSymbolTable
0
LTYPE
5
14
100
AcDbSymbolTableRecord
100
AcDbLinetypeTableRecord
2
BYBLOCK
70
0
0
LTYPE
5
15
100
AcDbSymbolTableRecord
100
AcDbLinetypeTableRecord
2
BYLAYER
70
0
0
ENDTAB
0
TABLE
2
LAYER
5
2
100
AcDbSymbolTable
70
2
0
LAYER
5
50
100
AcDbSymbolTableRecord
100
AcDbLayerTableRecord
2
0
70
0
6
CONTINUOUS
0
ENDTAB
0
TABLE
2
STYLE
5
3
100
AcDbSymbolTable
70
1
0
STYLE
5
11
100
AcDbSymbolTableRecord
100
AcDbTextStyleTableRecord
2
STANDARD
70
0
0
ENDTAB
0
TABLE
2
VIEW
5
6
100
AcDbSymbolTable
70
0
0
ENDTAB
0
TABLE
2
UCS
5
7
100
AcDbSymbolTable
70
0
0
ENDTAB
0
TABLE
2
APPID
5
9
100
AcDbSymbolTable
70
2
0
APPID
5
12
100
AcDbSymbolTableRecord
100
AcDbRegAppTableRecord
2
ACAD
70
0
0
ENDTAB
0
TABLE
2
DIMSTYLE
5
A
100
AcDbSymbolTable
70
1
0
ENDTAB
0
TABLE
2
BLOCK_RECORD
5
1
100
AcDbSymbolTable
70
1
0
BLOCK_RECORD
5
1F
100
AcDbSymbolTableRecord
100
AcDbBlockTableRecord
2
*MODEL_SPACE
0
BLOCK_RECORD
5
1B
100
AcDbSymbolTableRecord
100
AcDbBlockTableRecord
2
*PAPER_SPACE
0
ENDTAB
0
ENDSEC
0
SECTION
2
BLOCKS
0
BLOCK
5
20
100
AcDbEntity
100
AcDbBlockBegin
2
*MODEL_SPACE
0
ENDBLK
5
21
100
AcDbEntity
100
AcDbBlockEnd
0
BLOCK
5
1C
100
AcDbEntity
100
AcDbBlockBegin
2
*PAPER_SPACE
0
ENDBLK
5
1D
100
AcDbEntity
100
AcDbBlockEnd
0
ENDSEC
0
SECTION
2
ENTITIES
0
CIRCLE
5
100
100
AcDbEntity
8
0
100
AcDbCircle
10
83.950000000000017
20
2.8120000000000052
30
0
40
0.59999999999999998
0
CIRCLE
5
101
100
AcDbEntity
8
0
100
AcDbCircle
10
3.5000000000000004
20
16.800000000000001
30
0
40
1.375
0
LWPOLYLINE
5
102
100
AcDbEntity
8
0
100
AcDbPolyline
90
4
70
1
43
0.0
10
22.450000000000003
20
62.034999999999997
42
-0.99999999999999989
10
21.25
20
62.034999999999997
10
21.25
20
63.335000000000001
42
-0.99999999999999989
10
22.450000000000003
20
63.335000000000001
0
LWPOLYLINE
5
103
100
AcDbEntity
8
0
100
AcDbPolyline
90
4
70
1
43
0.0
10
32.95000000000001
20
63.335000000000001
42
-0.99999999999999989
10
34.149999999999999
20
63.335000000000001
10
34.150000000000006
20
62.034999999999997
42
-0.99999999999999989
10
32.950000000000003
20
62.034999999999997
0
LWPOLYLINE
5
104
100
AcDbEntity
8
0
100
AcDbPolyline
90
4
70
1
43
0.0
10
2.4500000000000002
20
62.034999999999997
10
2.4500000000000002
20
63.335000000000001
42
0.99999999999999989
10
1.25
20
63.335000000000001
10
1.25
20
62.034999999999997
42
0.99999999999999989
0
CIRCLE
5
105
100
AcDbEntity
8
0
100
AcDbCircle
10
25.449999999999999
20
62.685000000000002
30
0
40
0.59999999999999998
0
CIRCLE
5
106
100
AcDbEntity
8
0
100
AcDbCircle
10
29.950000000000003
20
62.685000000000002
30
0
40
0.59999999999999998
0
CIRCLE
5
107
100
AcDbEntity
8
0
100
AcDbCircle
10
61.5
20
39.300000000000004
30
0
40
1.375
0
LWPOLYLINE
5
108
100
AcDbEntity
8
0
100
AcDbPolyline
90
15
70
1
43
0.0
10
62
20
42.800000000000004
42
-0.41421356237309509
10
65
20
39.800000000000004
10
65
20
35.739542142372187
42
0.41421356237309637
10
66
20
34.739542142372187
10
71.400000000000006
20
34.739542142372187
42
0.4142135623731002
10
72.400000000000006
20
35.739542142372194
10
72.400000000000006
20
43.099999999999994
10
83.521398772834701
20
43.099999999999987
42
0.4142135623730977
10
84.521398772834701
20
44.099999999999994
10
84.521398772834701
20
46.375001010136941
42
0.4142135623730977
10
83.521398772834701
20
47.375001010136948
10
47.284192523942828
20
47.375001010136941
42
0.41421356237309509
10
46.284192523942835
20
46.375001010136941
10
46.284192523942835
20
43.799999999999997
42
0.41421356237309509
10
47.284192523942828
20
42.800000000000004
0
LWPOLYLINE
5
109
100
AcDbEntity
8
0
100
AcDbPolyline
90
4
70
1
43
0.0
10
14.150000000000002
20
62.034999999999997
10
14.150000000000002
20
63.335000000000001
42
0.99999999999999989
10
12.950000000000001
20
63.335000000000001
10
12.949999999999999
20
62.034999999999997
42
0.99999999999999989
0
LWPOLYLINE
5
110
100
AcDbEntity
8
0
100
AcDbPolyline
90
4
70
1
43
0.0
10
42.45000000000001
20
62.034999999999997
42
-0.99999999999999989
10
41.25
20
62.034999999999997
10
41.250000000000007
20
63.335000000000001
42
-0.99999999999999989
10
42.450000000000003
20
63.335000000000001
0
LWPOLYLINE
5
111
100
AcDbEntity
8
0
100
AcDbPolyline
90
73
70
1
43
0.0
10
40
20
100
10
55.399999999999999
20
100
10
55.399999999999991
20
91.666499613520813
42
0.4142135623730977
10
56.399999999999999
20
90.666499613520827
10
59.220000000000027
20
90.666499613520827
42
0.4142135623730977
10
60.220000000000027
20
91.666499613520813
10
60.220000000000027
20
100
10
78.000000000000028
20
100
10
78.000000000000014
20
91.666499613520813
42
0.4142135623730977
10
79.000000000000028
20
90.666499613520827
10
81.220000000000013
20
90.666499613520827
42
0.41421356237309509
10
82.220000000000013
20
91.666499613520813
10
82.220000000000027
20
100
10
100.00000000000003
20
100
10
100.00000000000001
20
59.359999999999999
10
93.909999999999997
20
59.359999999999999
42
0.41421356237309509
10
92.909999999999997
20
58.359999999999999
10
92.909999999999997
20
57.165467318905307
42
0.41421356237309509
10
93.909999999999997
20
56.165467318905307
10
100
20
56.165467318905307
10
100
20
47.375001010136941
10
87.321398772834698
20
47.375001010136948
42
0.4142135623730977
10
86.321398772834698
20
46.375001010136941
10
86.321398772834698
20
44.099999999999994
42
0.4142135623730977
10
87.321398772834698
20
43.099999999999987
10
100
20
43.099999999999994
10
100
20
3.8857805861880479e-15
10
72.400000000000006
20
-5.5511151231257827e-15
10
72.400000000000006
20
8.2124933040044397
42
0.4142135623730967
10
71.400000000000006
20
9.2124933040044397
10
66
20
9.2124933040044397
42
0.4142135623730967
10
65
20
8.2124933040044397
10
65
20
3.0000000000000004
42
-0.41421356237309509
10
62
20
0
10
3.0000000000000009
20
0
42
-0.41421356237309515
10
0
20
3.0000000000000004
10
0
20
17.300000000000001
42
-0.41421356237309481
10
2.9999999999999982
20
20.300000000000004
10
13.788781788136335
20
20.300000000000004
42
0.41421356237309176
10
14.788781788136337
20
21.300000000000004
10
14.788781788136337
20
21.5
42
0.41421356237309176
10
13.788781788136337
20
22.5
10
3.0000000000000009
20
22.5
42
-0.41421356237309548
10
0
20
25.500000000000004
10
2.2204460492503131e-15
20
39.800000000000004
42
-0.41421356237309481
10
2.9999999999999982
20
42.800000000000004
10
13.963803742821382
20
42.799999999999997
42
0.41421356237309959
10
14.96380374282138
20
43.799999999999997
10
14.96380374282138
20
47.375001010136941
10
14.963803742821378
20
48.443675646591551
42
0.4142135623730957
10
13.96380374282138
20
49.443675646591544
10
13.000000000000004
20
49.443675646591544
42
0.4142135623730957
10
12.000000000000004
20
48.443675646591551
10
12.000000000000002
20
44
10
-1.1102230246251565e-15
20
44
10
0
20
57
10
5.0000000000000071
20
57
42
0.4142135623730947
10
6.0000000000000009
20
58
10
6.0000000000000009
20
59
42
0.4142135623730967
10
5.0000000000000009
20
60
10
0
20
60
10
0
20
100
10
15.4
20
100
10
15.399999999999999
20
91.666499613520813
42
0.41421356237309698
10
16.400000000000002
20
90.666499613520827
10
19
20
90.666499613520827
42
0.41421356237309825
10
20.000000000000007
20
91.666499613520813
10
20
20
100
10
35.399999999999999
20
100
10
35.399999999999991
20
91.666499613520813
42
0.41421356237309892
10
36.399999999999999
20
90.666499613520827
10
39
20
90.666499613520827
42
0.41421356237309892
10
40.000000000000007
20
91.666499613520813
0
LINE
5
112
100
AcDbEntity
8
0
100
AcDbLine
10
14.150000000000002
20
63.335000000000001
30
0
11
14.150000000000002
21
62.034999999999997
31
0
0
LINE
5
113
100
AcDbEntity
8
0
100
AcDbLine
10
2.4500000000000002
20
63.335000000000001
30
0
11
2.4500000000000002
21
62.034999999999997
31
0
0
LWPOLYLINE
5
114
100
AcDbEntity
8
0
100
AcDbPolyline
90
4
70
1
43
0.0
10
52.950000000000003
20
63.335000000000001
10
52.950000000000003
20
62.034999999999997
42
0.99999999999999989
10
54.149999999999999
20
62.034999999999997
10
54.149999999999999
20
63.335000000000001
42
0.99999999999999989
0
LINE
5
115
100
AcDbEntity
8
0
100
AcDbLine
10
41.25
20
62.034999999999997
30
0
11
41.25
21
63.335000000000001
31
0
0
LWPOLYLINE
5
116
100
AcDbEntity
8
0
100
AcDbPolyline
90
4
70
1
43
0.0
10
91.450000000000017
20
3.4620000000000002
10
91.450000000000017
20
2.1620000000000013
42
0.99999999999999989
10
92.650000000000006
20
2.1620000000000101
10
92.650000000000006
20
3.4620000000000091
42
0.99999999999999989
0
LWPOLYLINE
5
117
100
AcDbEntity
8
0
100
AcDbPolyline
90
4
70
1
43
0.0
10
80.950000000000003
20
2.1620000000000101
10
80.949999999999989
20
3.4620000000000091
42
0.99999999999999989
10
79.75
20
3.4620000000000002
10
79.75
20
2.1620000000000013
42
0.99999999999999989
0
LWPOLYLINE
5
118
100
AcDbEntity
8
0
100
AcDbPolyline
90
16
70
1
43
0.0
10
62
20
20.300000000000004
42
-0.41421356237309509
10
65
20
17.300000000000001
10
65
20
12.012493304004437
42
0.41421356237309637
10
66
20
11.012493304004439
10
71.400000000000006
20
11.012493304004439
42
0.4142135623730957
10
72.400000000000006
20
12.012493304004437
10
72.400000000000006
20
31.93954214237219
42
0.41421356237309637
10
71.400000000000006
20
32.93954214237219
10
66
20
32.93954214237219
42
0.41421356237309637
10
65
20
31.93954214237219
10
65
20
25.5
42
-0.41421356237309509
10
62
20
22.5
10
47.284192523942828
20
22.499999999999996
42
0.4142135623731002
10
46.284192523942835
20
21.5
10
46.284192523942835
20
21.300000000000004
42
0.4142135623731002
10
47.284192523942828
20
20.300000000000008
0
LINE
5
119
100
AcDbEntity
8
0
100
AcDbLine
10
12.949999999999999
20
62.034999999999997
30
0
11
12.950000000000001
21
63.335000000000001
31
0
0
ARC
5
120
100
AcDbEntity
8
0
100
AcDbCircle
10
33.550000000000004
20
63.335000000000001
30
0
40
0.59999999999999609
100
AcDbArc
50
0
51
180
0
ARC
5
121
100
AcDbEntity
8
0
100
AcDbCircle
10
21.850000000000001
20
62.034999999999997
30
0
40
0.60000000000000053
100
AcDbArc
50
-180
51
0
0
ARC
5
122
100
AcDbEntity
8
0
100
AcDbCircle
10
1.8500000000000003
20
62.034999999999997
30
0
40
0.60000000000000031
100
AcDbArc
50
-180
51
0
0
CIRCLE
5
123
100
AcDbEntity
8
0
100
AcDbCircle
10
5.4500000000000002
20
62.685000000000002
30
0
40
0.59999999999999998
0
CIRCLE
5
124
100
AcDbEntity
8
0
100
AcDbCircle
10
9.9499999999999993
20
62.685000000000002
30
0
40
0.59999999999999998
0
ARC
5
125
100
AcDbEntity
8
0
100
AcDbCircle
10
13.550000000000002
20
62.034999999999997
30
0
40
0.60000000000000275
100
AcDbArc
50
-180
51
0
0
ARC
5
126
100
AcDbEntity
8
0
100
AcDbCircle
10
1.8500000000000003
20
63.335000000000001
30
0
40
0.59999999999999998
100
AcDbArc
50
0
51
180
0
ARC
5
127
100
AcDbEntity
8
0
100
AcDbCircle
10
13.550000000000002
20
63.335000000000001
30
0
40
0.60000000000000053
100
AcDbArc
50
0
51
180
0
LINE
5
128
100
AcDbEntity
8
0
100
AcDbLine
10
34.149999999999999
20
63.335000000000001
30
0
11
34.149999999999999
21
62.034999999999997
31
0
0
LINE
5
129
100
AcDbEntity
8
0
100
AcDbLine
10
22.450000000000003
20
63.335000000000001
30
0
11
22.450000000000003
21
62.034999999999997
31
0
0
LINE
5
130
100
AcDbEntity
8
0
100
AcDbLine
10
32.950000000000003
20
62.034999999999997
30
0
11
32.950000000000003
21
63.335000000000001
31
0
0
LINE
5
131
100
AcDbEntity
8
0
100
AcDbLine
10
21.25
20
62.034999999999997
30
0
11
21.25
21
63.335000000000001
31
0
0
ARC
5
132
100
AcDbEntity
8
0
100
AcDbCircle
10
21.850000000000001
20
63.335000000000001
30
0
40
0.60000000000000053
100
AcDbArc
50
0
51
180
0
CIRCLE
5
133
100
AcDbEntity
8
0
100
AcDbCircle
10
45.450000000000003
20
62.685000000000002
30
0
40
0.59999999999999998
0
ARC
5
134
100
AcDbEntity
8
0
100
AcDbCircle
10
41.850000000000009
20
63.335000000000001
30
0
40
0.59999999999999609
100
AcDbArc
50
0
51
180
0
ARC
5
135
100
AcDbEntity
8
0
100
AcDbCircle
10
41.850000000000009
20
62.034999999999997
30
0
40
0.60000000000000497
100
AcDbArc
50
-180
51
0
0
ARC
5
136
100
AcDbEntity
8
0
100
AcDbCircle
10
53.550000000000004
20
63.335000000000001
30
0
40
0.59999999999999609
100
AcDbArc
50
0
51
180
0
LINE
5
137
100
AcDbEntity
8
0
100
AcDbLine
10
52.950000000000003
20
62.034999999999997
30
0
11
52.950000000000003
21
63.335000000000001
31
0
0
LINE
5
138
100
AcDbEntity
8
0
100
AcDbLine
10
42.450000000000003
20
63.335000000000001
30
0
11
42.450000000000003
21
62.034999999999997
31
0
0
LINE
5
139
100
AcDbEntity
8
0
100
AcDbLine
10
54.149999999999999
20
63.335000000000001
30
0
11
54.149999999999999
21
62.034999999999997
31
0
0
CIRCLE
5
140
100
AcDbEntity
8
0
100
AcDbCircle
10
49.950000000000003
20
62.685000000000002
30
0
40
0.59999999999999998
0
ARC
5
141
100
AcDbEntity
8
0
100
AcDbCircle
10
53.550000000000004
20
62.034999999999997
30
0
40
0.60000000000000497
100
AcDbArc
50
-180
51
0
0
CIRCLE
5
142
100
AcDbEntity
8
0
100
AcDbCircle
10
61.5
20
16.800000000000001
30
0
40
1.375
0
CIRCLE
5
143
100
AcDbEntity
8
0
100
AcDbCircle
10
3.5000000000000004
20
39.300000000000004
30
0
40
1.375
0
ARC
5
144
100
AcDbEntity
8
0
100
AcDbCircle
10
33.550000000000004
20
62.034999999999997
30
0
40
0.60000000000000497
100
AcDbArc
50
-180
51
0
0
CIRCLE
5
145
100
AcDbEntity
8
0
100
AcDbCircle
10
88.450000000000003
20
2.8120000000000052
30
0
40
0.59999999999999998
0
LINE
5
146
100
AcDbEntity
8
0
100
AcDbLine
10
1.25
20
62.034999999999997
30
0
11
1.25
21
63.335000000000001
31
0
0
LWPOLYLINE
5
147
100
AcDbEntity
8
0
100
AcDbPolyline
90
8
70
1
43
0.0
10
16.588781788136334
20
21.300000000000004
10
16.588781788136334
20
21.499999999999993
42
-0.41421356237309176
10
17.588781788136334
20
22.5
10
43.484192523942838
20
22.499999999999996
42
-0.4142135623731002
10
44.484192523942838
20
21.5
10
44.484192523942838
20
21.300000000000004
42
-0.4142135623731002
10
43.484192523942838
20
20.300000000000008
10
17.588781788136338
20
20.300000000000004
42
-0.41421356237309309
0
LWPOLYLINE
5
148
100
AcDbEntity
8
0
100
AcDbPolyline
90
8
70
1
43
0.0
10
16.763803742821381
20
43.799999999999997
10
16.763803742821377
20
46.375001010136941
42
-0.41421356237309698
10
17.763803742821381
20
47.375001010136941
10
43.484192523942838
20
47.375001010136941
42
-0.41421356237309509
10
44.484192523942838
20
46.375001010136941
10
44.484192523942838
20
43.799999999999997
42
-0.41421356237309509
10
43.484192523942838
20
42.800000000000004
10
17.763803742821381
20
42.800000000000004
42
-0.41421356237309698
0
LWPOLYLINE
5
149
100
AcDbEntity
8
0
100
AcDbPolyline
90
20
70
1
43
0.0
10
7.8000000000000016
20
59
10
7.8000000000000016
20
58
42
0.41421356237309509
10
8.7999999999999954
20
57
10
12.000000000000002
20
57
10
12.000000000000004
20
52.243675646591541
42
0.4142135623730957
10
13.000000000000004
20
51.243675646591541
10
13.96380374282138
20
51.243675646591541
42
0.4142135623730957
10
14.963803742821378
20
52.243675646591541
10
14.96380374282138
20
56.165467318905307
10
25.597962769794911
20
56.165467318905314
42
0.41421356237309892
10
26.597962769794918
20
57.165467318905307
10
26.597962769794918
20
59
42
0.4142135623731002
10
25.597962769794918
20
60
10
20
20
60
10
20.000000000000004
20
65.990656054111156
42
0.41421356237309698
10
19
20
66.990656054111156
10
16.400000000000002
20
66.990656054111156
42
0.4142135623730957
10
15.400000000000002
20
65.990656054111156
10
15.4
20
60
10
8.8000000000000007
20
60
42
0.4142135623730967
0
LWPOLYLINE
5
150
100
AcDbEntity
8
0
100
AcDbPolyline
90
14
70
1
43
0.0
10
28.397962769794919
20
57.165467318905307
10
28.397962769794919
20
59
42
-0.41421356237309637
10
29.397962769794923
20
60
10
35.399999999999999
20
60
10
35.400000000000006
20
66.214232426710282
42
-0.4142135623731002
10
36.399999999999999
20
67.214232426710282
10
39
20
67.214232426710282
42
-0.4142135623731002
10
39.999999999999993
20
66.214232426710282
10
40
20
60
10
45.647762824783214
20
60
42
-0.41421356237309509
10
46.647762824783214
20
59
10
46.647762824783214
20
57.165467318905307
42
-0.41421356237309509
10
45.647762824783214
20
56.165467318905307
10
29.397962769794923
20
56.165467318905307
42
-0.41421356237309637
0
LWPOLYLINE
5
151
100
AcDbEntity
8
0
100
AcDbPolyline
90
14
70
1
43
0.0
10
48.447762824783211
20
57.165467318905307
10
48.447762824783211
20
59
42
-0.41421356237309509
10
49.447762824783211
20
60
10
55.399999999999999
20
60
10
55.399999999999999
20
66.214232426710282
42
-0.41421356237309509
10
56.399999999999999
20
67.214232426710282
10
59.220000000000027
20
67.214232426710282
42
-0.41421356237309509
10
60.22000000000002
20
66.214232426710282
10
60.220000000000013
20
59.359999999999999
10
66.899386478145175
20
59.359999999999999
42
-0.41421356237309509
10
67.899386478145175
20
58.359999999999999
10
67.899386478145175
20
57.165467318905307
42
-0.41421356237309509
10
66.899386478145175
20
56.165467318905307
10
49.447762824783211
20
56.165467318905307
42
-0.41421356237309509
0
LWPOLYLINE
5
152
100
AcDbEntity
8
0
100
AcDbPolyline
90
14
70
1
43
0.0
10
69.699386478145172
20
57.165467318905307
10
69.699386478145172
20
58.359999999999999
42
-0.41421356237309509
10
70.699386478145158
20
59.359999999999999
10
78.000000000000014
20
59.359999999999999
10
78.000000000000028
20
66.214232426710282
42
-0.41421356237309509
10
79.000000000000028
20
67.214232426710282
10
81.220000000000013
20
67.214232426710282
42
-0.41421356237309509
10
82.220000000000013
20
66.214232426710282
10
82.220000000000013
20
59.359999999999999
10
90.110000000000014
20
59.359999999999999
42
-0.41421356237309509
10
91.110000000000014
20
58.359999999999999
10
91.110000000000014
20
57.165467318905307
42
-0.41421356237309509
10
90.110000000000014
20
56.165467318905307
10
70.699386478145158
20
56.165467318905307
42
-0.41421356237309509
0
LWPOLYLINE
5
153
100
AcDbEntity
8
0
100
AcDbPolyline
90
8
70
1
43
0.0
10
16.400000000000002
20
69.014232426710279
10
19
20
69.014232426710279
42
0.41421356237309698
10
20.000000000000004
20
70.014232426710265
10
20.000000000000007
20
87.86649961352083
42
0.41421356237309825
10
19
20
88.86649961352083
10
16.400000000000002
20
88.86649961352083
42
0.41421356237309698
10
15.399999999999999
20
87.86649961352083
10
15.400000000000002
20
70.014232426710265
42
0.4142135623730957
0
LWPOLYLINE
5
154
100
AcDbEntity
8
0
100
AcDbPolyline
90
8
70
1
43
0.0
10
36.399999999999999
20
88.86649961352083
10
39
20
88.86649961352083
42
-0.41421356237309892
10
40.000000000000007
20
87.86649961352083
10
39.999999999999993
20
70.014232426710265
42
-0.4142135623731002
10
39
20
69.014232426710279
10
36.399999999999999
20
69.014232426710279
42
-0.4142135623731002
10
35.400000000000006
20
70.014232426710265
10
35.399999999999991
20
87.86649961352083
42
-0.41421356237309892
0
LWPOLYLINE
5
155
100
AcDbEntity
8
0
100
AcDbPolyline
90
8
70
1
43
0.0
10
56.399999999999999
20
88.86649961352083
10
59.220000000000027
20
88.86649961352083
42
-0.4142135623730977
10
60.220000000000027
20
87.86649961352083
10
60.22000000000002
20
70.014232426710265
42
-0.41421356237309509
10
59.220000000000027
20
69.014232426710279
10
56.399999999999999
20
69.014232426710279
42
-0.41421356237309509
10
55.399999999999999
20
70.014232426710265
10
55.399999999999991
20
87.86649961352083
42
-0.4142135623730977
0
LWPOLYLINE
5
156
100
AcDbEntity
8
0
100
AcDbPolyline
90
8
70
1
43
0.0
10
79.000000000000028
20
88.86649961352083
10
81.220000000000013
20
88.86649961352083
42
-0.41421356237309509
10
82.220000000000013
20
87.86649961352083
10
82.220000000000013
20
70.014232426710265
42
-0.41421356237309509
10
81.220000000000013
20
69.014232426710279
10
79.000000000000028
20
69.014232426710279
42
-0.41421356237309509
10
78.000000000000028
20
70.014232426710265
10
78.000000000000014
20
87.86649961352083
42
-0.4142135623730977
0
ENDSEC
0
SECTION
2
OBJECTS
0
DICTIONARY
5
C
100
AcDbDictionary
3
ACAD_GROUP
350
D
3
ACAD_MLINESTYLE
350
17
0
DICTIONARY
5
D
100
AcDbDictionary
0
DICTIONARY
5
1A
330
C
100
AcDbDictionary
0
DICTIONARY
5
17
100
AcDbDictionary
0
ENDSEC
0
EOF
