0
SECTION
2
HEADER
9
$INSUNITS
70
4
9
$ACADVER
1
AC1014
9
$HANDSEED
5
FFFF
0
ENDSEC
0
SECTION
2
TABLES
0
TABLE
2
VPORT
5
8
100
AcDbSymbolTable
0
ENDTAB
0
TABLE
2
LTYPE
5
5
100
AcDbSymbolTable
0
LTYPE
5
14
100
AcDbSymbolTableRecord
100
AcDbLinetypeTableRecord
2
BYBLOCK
70
0
0
LTYPE
5
15
100
AcDbSymbolTableRecord
100
AcDbLinetypeTableRecord
2
BYLAYER
70
0
0
ENDTAB
0
TABLE
2
LAYER
5
2
100
AcDbSymbolTable
70
2
0
LAYER
5
50
100
AcDbSymbolTableRecord
100
AcDbLayerTableRecord
2
0
70
0
6
CONTINUOUS
0
ENDTAB
0
TABLE
2
STYLE
5
3
100
AcDbSymbolTable
70
1
0
STYLE
5
11
100
AcDbSymbolTableRecord
100
AcDbTextStyleTableRecord
2
STANDARD
70
0
0
ENDTAB
0
TABLE
2
VIEW
5
6
100
AcDbSymbolTable
70
0
0
ENDTAB
0
TABLE
2
UCS
5
7
100
AcDbSymbolTable
70
0
0
ENDTAB
0
TABLE
2
APPID
5
9
100
AcDbSymbolTable
70
2
0
APPID
5
12
100
AcDbSymbolTableRecord
100
AcDbRegAppTableRecord
2
ACAD
70
0
0
ENDTAB
0
TABLE
2
DIMSTYLE
5
A
100
AcDbSymbolTable
70
1
0
ENDTAB
0
TABLE
2
BLOCK_RECORD
5
1
100
AcDbSymbolTable
70
1
0
BLOCK_RECORD
5
1F
100
AcDbSymbolTableRecord
100
AcDbBlockTableRecord
2
*MODEL_SPACE
0
BLOCK_RECORD
5
1B
100
AcDbSymbolTableRecord
100
AcDbBlockTableRecord
2
*PAPER_SPACE
0
ENDTAB
0
ENDSEC
0
SECTION
2
BLOCKS
0
BLOCK
5
20
100
AcDbEntity
100
AcDbBlockBegin
2
*MODEL_SPACE
0
ENDBLK
5
21
100
AcDbEntity
100
AcDbBlockEnd
0
BLOCK
5
1C
100
AcDbEntity
100
AcDbBlockBegin
2
*PAPER_SPACE
0
ENDBLK
5
1D
100
AcDbEntity
100
AcDbBlockEnd
0
ENDSEC
0
SECTION
2
ENTITIES
0
ARC
5
100
100
AcDbEntity
8
0
100
AcDbCircle
10
73.465697644393032
20
48.416408867916559
30
0
40
0.5999999999999982
100
AcDbArc
50
-169.99999999999946
51
10.000000000000746
0
ARC
5
101
100
AcDbEntity
8
0
100
AcDbCircle
10
84.987948354635876
20
50.448092546619641
30
0
40
0.5999999999999982
100
AcDbArc
50
-169.99999999999923
51
10.000000000000965
0
ARC
5
102
100
AcDbEntity
8
0
100
AcDbCircle
10
73.239955013426027
20
49.696658946832429
30
0
40
0.59999999999999665
100
AcDbArc
50
10.000000000000087
51
190.00000000000051
0
ARC
5
103
100
AcDbEntity
8
0
100
AcDbCircle
10
3.0000000000000004
20
3.0000000000000004
30
0
40
3.0000000000000004
100
AcDbArc
50
180
51
270
0
LINE
5
104
100
AcDbEntity
8
0
100
AcDbLine
10
72.874812992585703
20
48.312219961316394
30
0
11
72.649070361618698
21
49.592470040232264
31
0
0
ARC
5
105
100
AcDbEntity
8
0
100
AcDbCircle
10
84.76220572366887
20
51.728342625535511
30
0
40
0.59999999999996168
100
AcDbArc
50
10.000000000000307
51
190.00000000000006
0
LINE
5
106
100
AcDbEntity
8
0
100
AcDbLine
10
85.353090375476171
20
51.832531532135668
30
0
11
85.578833006443176
21
50.552281453219805
31
0
0
LINE
5
107
100
AcDbEntity
8
0
100
AcDbLine
10
0
20
0
30
0
11
0
21
3.0000000000000009
31
0
0
LINE
5
108
100
AcDbEntity
8
0
100
AcDbLine
10
73.830839665233341
20
49.800847853432586
30
0
11
74.056582296200347
21
48.520597774516723
31
0
0
LINE
5
109
100
AcDbEntity
8
0
100
AcDbLine
10
3.0000000000000004
20
0
30
0
11
0
21
0
31
0
0
LINE
5
110
100
AcDbEntity
8
0
100
AcDbLine
10
84.397063702828561
20
50.343903640019477
30
0
11
84.171321071861513
21
51.624153718935347
31
0
0
ENDSEC
0
SECTION
2
OBJECTS
0
DICTIONARY
5
C
100
AcDbDictionary
3
ACAD_GROUP
350
D
3
ACAD_MLINESTYLE
350
17
0
DICTIONARY
5
D
100
AcDbDictionary
0
DICTIONARY
5
1A
330
C
100
AcDbDictionary
0
DICTIONARY
5
17
100
AcDbDictionary
0
ENDSEC
0
EOF
