  0
SECTION
  2
HEADER
  9
$ACADVER
  1
AC1014
  9
$HANDSEED
  5
FFFF
  9
$MEASUREMENT
 70
     1
  0
ENDSEC
  0
SECTION
  2
TABLES
  0
TABLE
  2
VPORT
  5
8
330
0
100
AcDbSymbolTable
 70
     4
  0
VPORT
  5
2E
330
8
100
AcDbSymbolTableRecord
100
AcDbViewportTableRecord
  2
*ACTIVE
 70
     0
 10
0.0
 20
0.0
 11
1.0
 21
1.0
 12
210.0
 22
148.5
 13
0.0
 23
0.0
 14
10.0
 24
10.0
 15
10.0
 25
10.0
 16
0.0
 26
0.0
 36
1.0
 17
0.0
 27
0.0
 37
0.0
 40
341.0
 41
1.24
 42
50.0
 43
0.0
 44
0.0
 50
0.0
 51
0.0
 71
     0
 72
   100
 73
     1
 74
     3
 75
     0
 76
     0
 77
     0
 78
     0
  0
ENDTAB
  0
TABLE
  2
LTYPE
  5
5
330
0
100
AcDbSymbolTable
 70
     1
  0
LTYPE
  5
14
330
5
100
AcDbSymbolTableRecord
100
AcDbLinetypeTableRecord
  2
BYBLOCK
 70
     0
  3

 72
    65
 73
     0
 40
0.0
  0
LTYPE
  5
15
330
5
100
AcDbSymbolTableRecord
100
AcDbLinetypeTableRecord
  2
BYLAYER
 70
     0
  3

 72
    65
 73
     0
 40
0.0
  0
LTYPE
  5
16
330
5
100
AcDbSymbolTableRecord
100
AcDbLinetypeTableRecord
  2
CONTINUOUS
 70
     0
  3
Solid line
 72
    65
 73
     0
 40
0.0
  0
ENDTAB
  0
TABLE
  2
LAYER
  5
2
100
AcDbSymbolTable
 70
2
  0
LAYER
  5
50
100
AcDbSymbolTableRecord
100
AcDbLayerTableRecord
  2
0
 70
0
  6
CONTINUOUS
  0
LAYER
  5
51
100
AcDbSymbolTableRecord
100
AcDbLayerTableRecord
  2
Layer_1
 70
0
  6
CONTINUOUS
  0
ENDTAB
  0
TABLE
  2
STYLE
  5
3
330
0
100
AcDbSymbolTable
 70
     1
  0
STYLE
  5
11
330
3
100
AcDbSymbolTableRecord
100
AcDbTextStyleTableRecord
  2
STANDARD
 70
     0
 40
0.0
 41
1.0
 50
0.0
 71
     0
 42
2.5
  3
txt
  4

  0
ENDTAB
  0
TABLE
  2
VIEW
  5
6
330
0
100
AcDbSymbolTable
 70
     0
  0
ENDTAB
  0
TABLE
  2
UCS
  5
7
330
0
100
AcDbSymbolTable
 70
     0
  0
ENDTAB
  0
TABLE
  2
APPID
  5
9
330
0
100
AcDbSymbolTable
 70
     2
  0
APPID
  5
12
330
9
100
AcDbSymbolTableRecord
100
AcDbRegAppTableRecord
  2
ACAD
 70
     0
  0
ENDTAB
  0
TABLE
  2
DIMSTYLE
  5
A
330
0
100
AcDbSymbolTable
 70
     1
  0
DIMSTYLE
105
27
330
A
100
AcDbSymbolTableRecord
100
AcDbDimStyleTableRecord
  2
ISO-25
 70
     0
  3

  4

  5

  6

  7

 40
1.0
 41
2.5
 42
0.625
 43
3.75
 44
1.25
 45
0.0
 46
0.0
 47
0.0
 48
0.0
140
2.5
141
2.5
142
0.0
143
0.03937007874016
144
1.0
145
0.0
146
1.0
147
0.625
 71
     0
 72
     0
 73
     0
 74
     0
 75
     0
 76
     0
 77
     1
 78
     8
170
     0
171
     3
172
     1
173
     0
174
     0
175
     0
176
     0
177
     0
178
     0
270
     2
271
     2
272
     2
273
     2
274
     3
340
11
275
     0
280
     0
281
     0
282
     0
283
     0
284
     8
285
     0
286
     0
287
     3
288
     0
  0
ENDTAB
  0
TABLE
  2
BLOCK_RECORD
  5
1
330
0
100
AcDbSymbolTable
 70
     1
  0
BLOCK_RECORD
  5
1F
330
1
100
AcDbSymbolTableRecord
100
AcDbBlockTableRecord
  2
*MODEL_SPACE
  0
BLOCK_RECORD
  5
1B
330
1
100
AcDbSymbolTableRecord
100
AcDbBlockTableRecord
  2
*PAPER_SPACE
  0
ENDTAB
  0
ENDSEC
  0
SECTION
  2
BLOCKS
  0
BLOCK
  5
20
330
1F
100
AcDbEntity
  8
0
100
AcDbBlockBegin
  2
*MODEL_SPACE
 70
     0
 10
0.0
 20
0.0
 30
0.0
  3
*MODEL_SPACE
  1

  0
ENDBLK
  5
21
330
1F
100
AcDbEntity
  8
0
100
AcDbBlockEnd
  0
BLOCK
  5
1C
330
1B
100
AcDbEntity
 67
     1
  8
0
100
AcDbBlockBegin
  2
*PAPER_SPACE
  1

  0
ENDBLK
  5
1D
330
1B
100
AcDbEntity
 67
     1
  8
0
100
AcDbBlockEnd
  0
ENDSEC
  0
SECTION
  2
ENTITIES
  0
SPLINE
  5
100
100
AcDbEntity
  8
Layer_1
 62
7
100
AcDbSpline
 70
8
 71
3
 72
8
 73
4
 74
0
 40
0
 40
0
 40
0
 40
0
 40
1
 40
1
 40
1
 40
1
 10
0.000000
 20
56.936575
 30
0.0
 10
0.000000
 20
56.936575
 30
0.0
 10
0.550871
 20
56.205354
 30
0.0
 10
0.550871
 20
56.205354
 30
0.0
  0
SPLINE
  5
101
100
AcDbEntity
  8
Layer_1
 62
7
100
AcDbSpline
 70
8
 71
3
 72
8
 73
4
 74
0
 40
0
 40
0
 40
0
 40
0
 40
1
 40
1
 40
1
 40
1
 10
0.550871
 20
56.205354
 30
0.0
 10
0.701550
 20
56.005668
 30
0.0
 10
0.976608
 20
55.948052
 30
0.0
 10
1.194759
 20
56.070480
 30
0.0
  0
LWPOLYLINE
  5
102
100
AcDbEntity
  8
Layer_1
 62
7
100
AcDbPolyline
 90
3
 70
0
 10
8.644950
 20
65.425980
 30
0.0
 10
0.000000
 20
58.911132
 30
0.0
 10
0.000000
 20
56.936575
 30
0.0
  0
SPLINE
  5
103
100
AcDbEntity
  8
Layer_1
 62
7
100
AcDbSpline
 70
8
 71
3
 72
8
 73
4
 74
0
 40
0
 40
0
 40
0
 40
0
 40
1
 40
1
 40
1
 40
1
 10
1.477946
 20
56.283904
 30
0.0
 10
1.787657
 20
56.517287
 30
0.0
 10
2.225382
 20
56.456155
 30
0.0
 10
2.458764
 20
56.146442
 30
0.0
  0
LWPOLYLINE
  5
104
100
AcDbEntity
  8
Layer_1
 62
7
100
AcDbPolyline
 90
2
 70
0
 10
1.194759
 20
56.070480
 30
0.0
 10
1.477946
 20
56.283904
 30
0.0
  0
SPLINE
  5
105
100
AcDbEntity
  8
Layer_1
 62
7
100
AcDbSpline
 70
8
 71
3
 72
8
 73
4
 74
0
 40
0
 40
0
 40
0
 40
0
 40
1
 40
1
 40
1
 40
1
 10
3.722253
 20
54.469026
 30
0.0
 10
3.955637
 20
54.159316
 30
0.0
 10
3.894505
 20
53.722107
 30
0.0
 10
3.584794
 20
53.488724
 30
0.0
  0
LWPOLYLINE
  5
106
100
AcDbEntity
  8
Layer_1
 62
7
100
AcDbPolyline
 90
2
 70
0
 10
2.458764
 20
56.146442
 30
0.0
 10
3.722253
 20
54.469026
 30
0.0
  0
SPLINE
  5
107
100
AcDbEntity
  8
Layer_1
 62
7
100
AcDbSpline
 70
8
 71
3
 72
8
 73
4
 74
0
 40
0
 40
0
 40
0
 40
0
 40
1
 40
1
 40
1
 40
1
 10
3.597713
 20
11.927437
 30
0.0
 10
3.907424
 20
11.694054
 30
0.0
 10
3.968556
 20
11.256847
 30
0.0
 10
3.735172
 20
10.947136
 30
0.0
  0
LWPOLYLINE
  5
108
100
AcDbEntity
  8
Layer_1
 62
7
100
AcDbPolyline
 90
4
 70
0
 10
3.584794
 20
53.488724
 30
0.0
 10
0.000000
 20
50.787598
 30
0.0
 10
0.000000
 20
14.638383
 30
0.0
 10
3.597713
 20
11.927437
 30
0.0
  0
SPLINE
  5
109
100
AcDbEntity
  8
Layer_1
 62
7
100
AcDbSpline
 70
8
 71
3
 72
8
 73
4
 74
0
 40
0
 40
0
 40
0
 40
0
 40
1
 40
1
 40
1
 40
1
 10
2.471684
 20
9.270235
 30
0.0
 10
2.238300
 20
8.960525
 30
0.0
 10
1.800576
 20
8.898875
 30
0.0
 10
1.490865
 20
9.132259
 30
0.0
  0
SPLINE
  5
10a
100
AcDbEntity
  8
Layer_1
 62
7
100
AcDbSpline
 70
8
 71
3
 72
8
 73
4
 74
0
 40
0
 40
0
 40
0
 40
0
 40
1
 40
1
 40
1
 40
1
 10
1.490865
 20
9.132259
 30
0.0
 10
1.490865
 20
9.132259
 30
0.0
 10
1.195276
 20
9.354985
 30
0.0
 10
1.195276
 20
9.354985
 30
0.0
  0
SPLINE
  5
10b
100
AcDbEntity
  8
Layer_1
 62
7
100
AcDbSpline
 70
8
 71
3
 72
8
 73
4
 74
0
 40
0
 40
0
 40
0
 40
0
 40
1
 40
1
 40
1
 40
1
 10
1.195276
 20
9.354985
 30
0.0
 10
0.977007
 20
9.478138
 30
0.0
 10
0.701285
 20
9.420696
 30
0.0
 10
0.550354
 20
9.220626
 30
0.0
  0
LWPOLYLINE
  5
10c
100
AcDbEntity
  8
Layer_1
 62
7
100
AcDbPolyline
 90
2
 70
0
 10
3.735172
 20
10.947136
 30
0.0
 10
2.471684
 20
9.270235
 30
0.0
  0
SPLINE
  5
10d
100
AcDbEntity
  8
Layer_1
 62
7
100
AcDbSpline
 70
8
 71
3
 72
8
 73
4
 74
0
 40
0
 40
0
 40
0
 40
0
 40
1
 40
1
 40
1
 40
1
 10
9.879500
 20
-0.000003
 30
0.0
 10
9.879500
 20
-0.000003
 30
0.0
 10
10.932666
 20
1.397327
 30
0.0
 10
10.932666
 20
1.397327
 30
0.0
  0
SPLINE
  5
10e
100
AcDbEntity
  8
Layer_1
 62
7
100
AcDbSpline
 70
8
 71
3
 72
8
 73
4
 74
0
 40
0
 40
0
 40
0
 40
0
 40
1
 40
1
 40
1
 40
1
 10
10.932666
 20
1.397327
 30
0.0
 10
11.083162
 20
1.597644
 30
0.0
 10
11.062177
 20
1.878416
 30
0.0
 10
10.883576
 20
2.054137
 30
0.0
  0
LWPOLYLINE
  5
10f
100
AcDbEntity
  8
Layer_1
 62
7
100
AcDbPolyline
 90
5
 70
0
 10
0.550354
 20
9.220626
 30
0.0
 10
0.000000
 20
8.490438
 30
0.0
 10
0.000000
 20
6.514848
 30
0.0
 10
8.645984
 20
-0.000003
 30
0.0
 10
9.879500
 20
-0.000003
 30
0.0
  0
SPLINE
  5
110
100
AcDbEntity
  8
Layer_1
 62
7
100
AcDbSpline
 70
8
 71
3
 72
8
 73
4
 74
0
 40
0
 40
0
 40
0
 40
0
 40
1
 40
1
 40
1
 40
1
 10
10.601420
 20
2.267047
 30
0.0
 10
10.291709
 20
2.500427
 30
0.0
 10
10.230577
 20
2.937637
 30
0.0
 10
10.463961
 20
3.247347
 30
0.0
  0
LWPOLYLINE
  5
111
100
AcDbEntity
  8
Layer_1
 62
7
100
AcDbPolyline
 90
2
 70
0
 10
10.883576
 20
2.054137
 30
0.0
 10
10.601420
 20
2.267047
 30
0.0
  0
SPLINE
  5
112
100
AcDbEntity
  8
Layer_1
 62
7
100
AcDbSpline
 70
8
 71
3
 72
8
 73
4
 74
0
 40
0
 40
0
 40
0
 40
0
 40
1
 40
1
 40
1
 40
1
 10
11.727449
 20
4.924767
 30
0.0
 10
11.960833
 20
5.234475
 30
0.0
 10
12.398040
 20
5.295607
 30
0.0
 10
12.707751
 20
5.062227
 30
0.0
  0
LWPOLYLINE
  5
113
100
AcDbEntity
  8
Layer_1
 62
7
100
AcDbPolyline
 90
2
 70
0
 10
10.463961
 20
3.247347
 30
0.0
 10
11.727449
 20
4.924767
 30
0.0
  0
SPLINE
  5
114
100
AcDbEntity
  8
Layer_1
 62
7
100
AcDbSpline
 70
8
 71
3
 72
8
 73
4
 74
0
 40
0
 40
0
 40
0
 40
0
 40
1
 40
1
 40
1
 40
1
 10
43.423187
 20
5.072037
 30
0.0
 10
43.732901
 20
5.305426
 30
0.0
 10
44.170106
 20
5.244294
 30
0.0
 10
44.403490
 20
4.934587
 30
0.0
  0
LWPOLYLINE
  5
115
100
AcDbEntity
  8
Layer_1
 62
7
100
AcDbPolyline
 90
4
 70
0
 10
12.707751
 20
5.062227
 30
0.0
 10
19.425688
 20
-0.000003
 30
0.0
 10
36.692849
 20
-0.000003
 30
0.0
 10
43.423187
 20
5.072037
 30
0.0
  0
SPLINE
  5
116
100
AcDbEntity
  8
Layer_1
 62
7
100
AcDbSpline
 70
8
 71
3
 72
8
 73
4
 74
0
 40
0
 40
0
 40
0
 40
0
 40
1
 40
1
 40
1
 40
1
 10
45.667497
 20
3.257167
 30
0.0
 10
45.900881
 20
2.947457
 30
0.0
 10
45.839230
 20
2.510247
 30
0.0
 10
45.529520
 20
2.276867
 30
0.0
  0
LWPOLYLINE
  5
117
100
AcDbEntity
  8
Layer_1
 62
7
100
AcDbPolyline
 90
2
 70
0
 10
44.403490
 20
4.934587
 30
0.0
 10
45.667497
 20
3.257167
 30
0.0
  0
SPLINE
  5
118
100
AcDbEntity
  8
Layer_1
 62
7
100
AcDbSpline
 70
8
 71
3
 72
8
 73
4
 74
0
 40
0
 40
0
 40
0
 40
0
 40
1
 40
1
 40
1
 40
1
 10
45.235480
 20
2.055167
 30
0.0
 10
45.055966
 20
1.879579
 30
0.0
 10
45.034516
 20
1.598089
 30
0.0
 10
45.185350
 20
1.397327
 30
0.0
  0
LWPOLYLINE
  5
119
100
AcDbEntity
  8
Layer_1
 62
7
100
AcDbPolyline
 90
2
 70
0
 10
45.529520
 20
2.276867
 30
0.0
 10
45.235480
 20
2.055167
 30
0.0
  0
SPLINE
  5
11a
100
AcDbEntity
  8
Layer_1
 62
7
100
AcDbSpline
 70
8
 71
3
 72
8
 73
4
 74
0
 40
0
 40
0
 40
0
 40
0
 40
1
 40
1
 40
1
 40
1
 10
55.567145
 20
9.220626
 30
0.0
 10
55.416065
 20
9.420513
 30
0.0
 10
55.140372
 20
9.477729
 30
0.0
 10
54.922228
 20
9.354468
 30
0.0
  0
LWPOLYLINE
  5
11b
100
AcDbEntity
  8
Layer_1
 62
7
100
AcDbPolyline
 90
6
 70
0
 10
45.185350
 20
1.397327
 30
0.0
 10
46.238000
 20
-0.000003
 30
0.0
 10
47.473067
 20
-0.000003
 30
0.0
 10
56.118015
 20
6.514331
 30
0.0
 10
56.118015
 20
8.489405
 30
0.0
 10
55.567145
 20
9.220626
 30
0.0
  0
SPLINE
  5
11c
100
AcDbEntity
  8
Layer_1
 62
7
100
AcDbSpline
 70
8
 71
3
 72
8
 73
4
 74
0
 40
0
 40
0
 40
0
 40
0
 40
1
 40
1
 40
1
 40
1
 10
54.640076
 20
9.142078
 30
0.0
 10
54.330363
 20
8.908694
 30
0.0
 10
53.893157
 20
8.970343
 30
0.0
 10
53.659774
 20
9.280054
 30
0.0
  0
LWPOLYLINE
  5
11d
100
AcDbEntity
  8
Layer_1
 62
7
100
AcDbPolyline
 90
2
 70
0
 10
54.922228
 20
9.354468
 30
0.0
 10
54.640076
 20
9.142078
 30
0.0
  0
SPLINE
  5
11e
100
AcDbEntity
  8
Layer_1
 62
7
100
AcDbSpline
 70
8
 71
3
 72
8
 73
4
 74
0
 40
0
 40
0
 40
0
 40
0
 40
1
 40
1
 40
1
 40
1
 10
52.395766
 20
10.956954
 30
0.0
 10
52.162383
 20
11.266665
 30
0.0
 10
52.224033
 20
11.703872
 30
0.0
 10
52.533744
 20
11.937256
 30
0.0
  0
LWPOLYLINE
  5
11f
100
AcDbEntity
  8
Layer_1
 62
7
100
AcDbPolyline
 90
2
 70
0
 10
53.659774
 20
9.280054
 30
0.0
 10
52.395766
 20
10.956954
 30
0.0
  0
SPLINE
  5
120
100
AcDbEntity
  8
Layer_1
 62
7
100
AcDbSpline
 70
8
 71
3
 72
8
 73
4
 74
0
 40
0
 40
0
 40
0
 40
0
 40
1
 40
1
 40
1
 40
1
 10
52.520824
 20
53.498542
 30
0.0
 10
52.211114
 20
53.731926
 30
0.0
 10
52.149463
 20
54.169134
 30
0.0
 10
52.382850
 20
54.478845
 30
0.0
  0
LWPOLYLINE
  5
121
100
AcDbEntity
  8
Layer_1
 62
7
100
AcDbPolyline
 90
4
 70
0
 10
52.533744
 20
11.937256
 30
0.0
 10
56.118020
 20
14.638383
 30
0.0
 10
56.118020
 20
50.787598
 30
0.0
 10
52.520824
 20
53.498542
 30
0.0
  0
SPLINE
  5
122
100
AcDbEntity
  8
Layer_1
 62
7
100
AcDbSpline
 70
8
 71
3
 72
8
 73
4
 74
0
 40
0
 40
0
 40
0
 40
0
 40
1
 40
1
 40
1
 40
1
 10
53.646854
 20
56.155745
 30
0.0
 10
53.880238
 20
56.465456
 30
0.0
 10
54.317446
 20
56.527109
 30
0.0
 10
54.627156
 20
56.293720
 30
0.0
  0
SPLINE
  5
123
100
AcDbEntity
  8
Layer_1
 62
7
100
AcDbSpline
 70
8
 71
3
 72
8
 73
4
 74
0
 40
0
 40
0
 40
0
 40
0
 40
1
 40
1
 40
1
 40
1
 10
54.627156
 20
56.293720
 30
0.0
 10
54.627156
 20
56.293720
 30
0.0
 10
54.921712
 20
56.071512
 30
0.0
 10
54.921712
 20
56.071512
 30
0.0
  0
SPLINE
  5
124
100
AcDbEntity
  8
Layer_1
 62
7
100
AcDbSpline
 70
8
 71
3
 72
8
 73
4
 74
0
 40
0
 40
0
 40
0
 40
0
 40
1
 40
1
 40
1
 40
1
 10
54.921712
 20
56.071512
 30
0.0
 10
55.140097
 20
55.947634
 30
0.0
 10
55.416482
 20
56.004901
 30
0.0
 10
55.567666
 20
56.205354
 30
0.0
  0
LWPOLYLINE
  5
125
100
AcDbEntity
  8
Layer_1
 62
7
100
AcDbPolyline
 90
2
 70
0
 10
52.382850
 20
54.478845
 30
0.0
 10
53.646854
 20
56.155745
 30
0.0
  0
SPLINE
  5
126
100
AcDbEntity
  8
Layer_1
 62
7
100
AcDbSpline
 70
8
 71
3
 72
8
 73
4
 74
0
 40
0
 40
0
 40
0
 40
0
 40
1
 40
1
 40
1
 40
1
 10
45.185355
 20
64.028649
 30
0.0
 10
45.034861
 20
63.828332
 30
0.0
 10
45.055846
 20
63.547562
 30
0.0
 10
45.234445
 20
63.371842
 30
0.0
  0
LWPOLYLINE
  5
127
100
AcDbEntity
  8
Layer_1
 62
7
100
AcDbPolyline
 90
6
 70
0
 10
55.567666
 20
56.205354
 30
0.0
 10
56.118020
 20
56.935543
 30
0.0
 10
56.118020
 20
58.911132
 30
0.0
 10
47.473072
 20
65.425980
 30
0.0
 10
46.239037
 20
65.425980
 30
0.0
 10
45.185355
 20
64.028649
 30
0.0
  0
SPLINE
  5
128
100
AcDbEntity
  8
Layer_1
 62
7
100
AcDbSpline
 70
8
 71
3
 72
8
 73
4
 74
0
 40
0
 40
0
 40
0
 40
0
 40
1
 40
1
 40
1
 40
1
 10
45.516597
 20
63.158935
 30
0.0
 10
45.826308
 20
62.925551
 30
0.0
 10
45.887958
 20
62.488343
 30
0.0
 10
45.654574
 20
62.178633
 30
0.0
  0
LWPOLYLINE
  5
129
100
AcDbEntity
  8
Layer_1
 62
7
100
AcDbPolyline
 90
2
 70
0
 10
45.234445
 20
63.371842
 30
0.0
 10
45.516597
 20
63.158935
 30
0.0
  0
SPLINE
  5
12a
100
AcDbEntity
  8
Layer_1
 62
7
100
AcDbSpline
 70
8
 71
3
 72
8
 73
4
 74
0
 40
0
 40
0
 40
0
 40
0
 40
1
 40
1
 40
1
 40
1
 10
44.390567
 20
60.501217
 30
0.0
 10
44.157184
 20
60.191506
 30
0.0
 10
43.719978
 20
60.130374
 30
0.0
 10
43.410268
 20
60.363758
 30
0.0
  0
LWPOLYLINE
  5
12b
100
AcDbEntity
  8
Layer_1
 62
7
100
AcDbPolyline
 90
2
 70
0
 10
45.654574
 20
62.178633
 30
0.0
 10
44.390567
 20
60.501217
 30
0.0
  0
SPLINE
  5
12c
100
AcDbEntity
  8
Layer_1
 62
7
100
AcDbSpline
 70
8
 71
3
 72
8
 73
4
 74
0
 40
0
 40
0
 40
0
 40
0
 40
1
 40
1
 40
1
 40
1
 10
12.694832
 20
60.353939
 30
0.0
 10
12.385123
 20
60.120555
 30
0.0
 10
11.947914
 20
60.182203
 30
0.0
 10
11.714530
 20
60.491914
 30
0.0
  0
LWPOLYLINE
  5
12d
100
AcDbEntity
  8
Layer_1
 62
7
100
AcDbPolyline
 90
4
 70
0
 10
43.410268
 20
60.363758
 30
0.0
 10
36.692330
 20
65.425980
 30
0.0
 10
19.425688
 20
65.425980
 30
0.0
 10
12.694832
 20
60.353939
 30
0.0
  0
SPLINE
  5
12e
100
AcDbEntity
  8
Layer_1
 62
7
100
AcDbSpline
 70
8
 71
3
 72
8
 73
4
 74
0
 40
0
 40
0
 40
0
 40
0
 40
1
 40
1
 40
1
 40
1
 10
10.451042
 20
62.168814
 30
0.0
 10
10.217658
 20
62.478525
 30
0.0
 10
10.278790
 20
62.915733
 30
0.0
 10
10.588501
 20
63.149116
 30
0.0
  0
LWPOLYLINE
  5
12f
100
AcDbEntity
  8
Layer_1
 62
7
100
AcDbPolyline
 90
2
 70
0
 10
11.714530
 20
60.491914
 30
0.0
 10
10.451042
 20
62.168814
 30
0.0
  0
SPLINE
  5
130
100
AcDbEntity
  8
Layer_1
 62
7
100
AcDbSpline
 70
8
 71
3
 72
8
 73
4
 74
0
 40
0
 40
0
 40
0
 40
0
 40
1
 40
1
 40
1
 40
1
 10
10.883573
 20
63.371324
 30
0.0
 10
11.062765
 20
63.547186
 30
0.0
 10
11.083769
 20
63.828656
 30
0.0
 10
10.932663
 20
64.029165
 30
0.0
  0
LWPOLYLINE
  5
131
100
AcDbEntity
  8
Layer_1
 62
7
100
AcDbPolyline
 90
2
 70
0
 10
10.588501
 20
63.149116
 30
0.0
 10
10.883573
 20
63.371324
 30
0.0
  0
SPLINE
  5
132
100
AcDbEntity
  8
Layer_1
 62
7
100
AcDbSpline
 70
8
 71
3
 72
8
 73
4
 74
0
 40
0
 40
0
 40
0
 40
0
 40
1
 40
1
 40
1
 40
1
 10
28.031880
 20
39.290108
 30
0.0
 10
28.208641
 20
39.299665
 30
0.0
 10
28.383086
 20
39.246398
 30
0.0
 10
28.524357
 20
39.139730
 30
0.0
  0
LWPOLYLINE
  5
133
100
AcDbEntity
  8
Layer_1
 62
7
100
AcDbPolyline
 90
3
 70
0
 10
10.932663
 20
64.029165
 30
0.0
 10
9.880014
 20
65.425980
 30
0.0
 10
8.644950
 20
65.425980
 30
0.0
  0
SPLINE
  5
134
100
AcDbEntity
  8
Layer_1
 62
7
100
AcDbSpline
 70
8
 71
3
 72
8
 73
4
 74
0
 40
0
 40
0
 40
0
 40
0
 40
1
 40
1
 40
1
 40
1
 10
36.252567
 20
33.299778
 30
0.0
 10
36.440739
 20
33.157534
 30
0.0
 10
36.551036
 20
32.935057
 30
0.0
 10
36.550328
 20
32.699173
 30
0.0
  0
SPLINE
  5
135
100
AcDbEntity
  8
Layer_1
 62
7
100
AcDbSpline
 70
8
 71
3
 72
8
 73
4
 74
0
 40
0
 40
0
 40
0
 40
0
 40
1
 40
1
 40
1
 40
1
 10
36.550328
 20
32.699173
 30
0.0
 10
36.549620
 20
32.463288
 30
0.0
 10
36.437989
 20
32.241478
 30
0.0
 10
36.248967
 20
32.100366
 30
0.0
  0
LWPOLYLINE
  5
136
100
AcDbEntity
  8
Layer_1
 62
7
100
AcDbPolyline
 90
2
 70
0
 10
28.524357
 20
39.139730
 30
0.0
 10
36.252567
 20
33.299778
 30
0.0
  0
SPLINE
  5
137
100
AcDbEntity
  8
Layer_1
 62
7
100
AcDbSpline
 70
8
 71
3
 72
8
 73
4
 74
0
 40
0
 40
0
 40
0
 40
0
 40
1
 40
1
 40
1
 40
1
 10
28.490783
 20
26.291936
 30
0.0
 10
28.222734
 20
26.092036
 30
0.0
 10
27.854735
 20
26.093708
 30
0.0
 10
27.588514
 20
26.296036
 30
0.0
  0
SPLINE
  5
138
100
AcDbEntity
  8
Layer_1
 62
7
100
AcDbSpline
 70
8
 71
3
 72
8
 73
4
 74
0
 40
0
 40
0
 40
0
 40
0
 40
1
 40
1
 40
1
 40
1
 10
27.588514
 20
26.296036
 30
0.0
 10
27.588514
 20
26.296036
 30
0.0
 10
19.893358
 20
32.114320
 30
0.0
 10
19.893358
 20
32.114320
 30
0.0
  0
SPLINE
  5
139
100
AcDbEntity
  8
Layer_1
 62
7
100
AcDbSpline
 70
8
 71
3
 72
8
 73
4
 74
0
 40
0
 40
0
 40
0
 40
0
 40
1
 40
1
 40
1
 40
1
 10
19.893358
 20
32.114320
 30
0.0
 10
19.705570
 20
32.256066
 30
0.0
 10
19.595173
 20
32.477712
 30
0.0
 10
19.595173
 20
32.712992
 30
0.0
  0
SPLINE
  5
13a
100
AcDbEntity
  8
Layer_1
 62
7
100
AcDbSpline
 70
8
 71
3
 72
8
 73
4
 74
0
 40
0
 40
0
 40
0
 40
0
 40
1
 40
1
 40
1
 40
1
 10
19.595173
 20
32.712992
 30
0.0
 10
19.595173
 20
32.948271
 30
0.0
 10
19.705570
 20
33.169917
 30
0.0
 10
19.893358
 20
33.311663
 30
0.0
  0
LWPOLYLINE
  5
13b
100
AcDbEntity
  8
Layer_1
 62
7
100
AcDbPolyline
 90
2
 70
0
 10
36.248967
 20
32.100366
 30
0.0
 10
28.490783
 20
26.291936
 30
0.0
  0
SPLINE
  5
13c
100
AcDbEntity
  8
Layer_1
 62
7
100
AcDbSpline
 70
8
 71
3
 72
8
 73
4
 74
0
 40
0
 40
0
 40
0
 40
0
 40
1
 40
1
 40
1
 40
1
 10
27.620019
 20
39.139730
 30
0.0
 10
27.739264
 20
39.229758
 30
0.0
 10
27.882680
 20
39.282122
 30
0.0
 10
28.031880
 20
39.290108
 30
0.0
  0
LWPOLYLINE
  5
13d
100
AcDbEntity
  8
Layer_1
 62
7
100
AcDbPolyline
 90
2
 70
0
 10
19.893358
 20
33.311663
 30
0.0
 10
27.620019
 20
39.139730
 30
0.0
  0
LWPOLYLINE
  5
13e
100
AcDbEntity
  8
Layer_1
 62
7
100
AcDbPolyline
 90
1
 70
1
 10
28.031880
 20
39.290108
 30
0.0
  0
ENDSEC
  0
SECTION
  2
OBJECTS
  0
DICTIONARY
  5
C
330
0
100
AcDbDictionary
  3
ACAD_GROUP
350
D
  3
ACAD_MLINESTYLE
350
17
  0
DICTIONARY
  5
D
330
C
100
AcDbDictionary
  0
DICTIONARY
  5
1A
330
C
100
AcDbDictionary
  0
DICTIONARY
  5
17
330
C
100
AcDbDictionary
  3
STANDARD
350
18
  0
DICTIONARY
  5
19
330
C
100
AcDbDictionary
  0
ENDSEC
  0
EOF
